Glee Cast - I Feel Pretty Unpretty tab

-------------------------------------------------------------------------------
                    I Feel Pretty/Unpretty - Glee Cast
-------------------------------------------------------------------------------

This is the intro to the song but really this part is repeated throughout. The chords 
posted on other versions are basically correct but this is for those who want to finger 
pick it like they do in the real version.

CAPO 3

Standard Tuning


     C         G/B   C*    Fmaj7/A       B*
e|-------0--------------------------------------------------------|
B|-------1------3----5---------1---1-----0------------------------|
G|-----0---0----0-0--0-0-------2---2-----0-0----------------------|
D|---------------------------3---3---3----------------------------|
A|---3----------2----3-----0-------------2------------------------|
E|----------------------------------------------------------------|

e|--------0-------------------------------------------------------|
B|------1---1----3----5---------1---------0-----------------------|
G|----0-------0--0-0--0-0-------2---2-----0-0---------------------|
D|----------------------------3---3---3---------------------------|
A|--3------------2----3-----0-------------2-----------------------|
E|----------------------------------------------------------------|
Tap to rate this tab
 
# A B C D E F G H I J K L M N O P Q R S T U V W X Y Z