Song name
# A B C D E F G H I J K L M N O P Q R S T U V W X Y Z

Glee Cast - Mine tab

Well guys my name's Karah, and this is my first ever Tab, so I'm sorry if things 
aren't perfect, but I did the best I could. 
Also if you listen to the song, it's mostly ALL finger picking and I noticed that 
no one has made a tab for it this way.. 
So I decided heck, if I learned it, then I should share it with you guy too!
___________________________________________________________________________________

Song: Mine
Artist: Glee Cast (Naya Rivera)
CAPO on the 7th FRET!


INTRO:

e|----3-----0-------3-----3--------3-----0-------3--0-------|
B|-1---1-3---3---1---1-0---0----1---1-3---3---1---1-0-------|
G|--0-----0-------0-----0--------0-----0-------0----0-------|
D|---2-------------2--------------2-------------2---2-------| 
A|-3-------2-----3-------2------3-------2-----3-----3-------|
E|----------------------------------------------------------|



VERSE 1: (four counts)

"You were in college working part time waiting tables..."

e|----------------------------------------------| x2
B|-1--1--1---1--1--1---1--1--1---1--1--1--------|
G|--0--0--0---0--0--0---0--0--0---0--0--0-------|
D|---2--2------2--2------2--2------2--2---------| 
A|-3---------3---------3---------3--------------|
E|----------------------------------------------|



PRE-CHORUS: (you're just repeating the intro)

"I say can you believe it? As we're lying on the couch..."

e|----3-----0-------3-----3--------3-----0-------3--0-------|
B|-1---1-3---3---1---1-0---0----1---1-3---3---1---1-0-------|
G|--0-----0-------0-----0--------0-----0-------0----0-------|
D|---2-------------2--------------2-------------2---2-------| 
A|-3-------2-----3-------2------3-------2-----3-----3-------|
E|----------------------------------------------------------|



CHORUS: (0:52-1:14)

"Do you remember we were sitting there by the water..."

e|----3---------3--------|
B|-1---1-3---1---1-3-----|
G|--0-----0---0-----0----|
D|---2--2------2--2------| 
A|-3---------3-----------|
E|-----------------------|

(Here's the little twist)
"You put your arm around me   for the first time..."

e|----3-----------------------------------------------|
B|-0---1-0------------------1-1--------0-0------------|
G|--0-----0-----------------0-0--------0-0------------|
D|---2--2-------------------2-2--------2-2------------|
A|-3------------------------3-3--------3-3------------|
E|----------------------------------------------------|

"You made a rebel of a careless man's careful daughter"

e|----3---------3--------|
B|-1---1-3---1---1-3-----|
G|--0-----0---0-----0----|
D|---2--2------2--2------| 
A|-3---------3-----------|
E|-----------------------|

"You are the best thing  that's ever been mine"

e|----3--------------------------------------3------------| (just finger  
B|-0---1-0-------------1-1--------0-0-----1---1-3--3--3---|  pick this 
G|--0-----0------------0-0--------0-0------0-----0--0--0--|  until it 
D|---2--2--------------2-2--------2-2-------2--2--2--2--2-|  fades out.)
A|-3-------------------3-3--------3-3-----3---------------|
E|--------------------------------------------------------|



VERSE 2:
     
    "Flash forward and we're taking on the world together..."

e|--------------------------------------------------------|
B|-1-------------------------0----------------------------|
G|-0-------------------------0----------------------------|
D|-2-------------------------2----------------------------|
A|-3-------------------------3----------------------------|
E|--------------------------------------------------------|

"And there's a drawer of my things at your place.."

e|----------------------------------------------| x2
B|-1--1--1---1--1--1---1--1--1---1--1--1--------|
G|--0--0--0---0--0--0---0--0--0---0--0--0-------|
D|---2--2------2--2------2--2------2--2---------| 
A|-3---------3---------3---------3--------------|
E|----------------------------------------------|



PRE-CHORUS: 

"But we got bills to pay. We got nothing figured out. When it was hard to take.."

e|----3-----0-------3-----3--------3-----0-------3--0-------|
B|-1---1-3---3---1---1-0---0----1---1-3---3---1---1-0-------|
G|--0-----0-------0-----0--------0-----0-------0----0-------|
D|---2-------------2--------------2-------------2---2-------| 
A|-3-------2-----3-------2------3-------2-----3-----3-------|
E|----------------------------------------------------------|


CHORUS: (repeat chorus TWICE)



BRIDGE: (Strumming)

        Am                       F
And I remember that fight, two thirty AM

          C                      Em               
You said everything was slipping out of our hands

 Am                  F                            C         Em                 
I ran out crying and you followed me out into the street



PRE-CHORUS: (Just like before, replay the intro)


CHORUS:

"I remember how we felt sitting by the water, and every time I look at you it's 
like the first time.."

e|----3---------3--------|
B|-1---1-3---1---1-3-----|
G|--0-----0---0-----0----|
D|---2--2------2--2------| 
A|-3---------3-----------|
E|-----------------------|

"And every time I look at you it's like the first time.."

e|----3---------3-------|
B|-0---1-0---0---1-0----|
G|--0-----0---0-----0---|
D|---2--2------2--2-----|
A|-3---------3----------|
E|----------------------|

"I fell in love with a careless man's careful daughter.."

e|----3---------3--------|
B|-1---1-3---1---1-3-----|
G|--0-----0---0-----0----|
D|---2--2------2--2------| 
A|-3---------3-----------|
E|-----------------------|                              (REPLAY BOTH THESE
                                                          PARTS 3 TIMES!)
e|----3----------------------------------------------|
B|-0---1-0------------------1-1--------0-0-----------|
G|--0-----0-----------------0-0--------0-0-----------|
D|---2--2-------------------2-2--------2-2-----------|
A|-3------------------------3-3--------3-3-----------|
E|---------------------------------------------------|


ENDING: (Replay INTRO)

"Do you believe it? We're gonna make it now.."
"And I can see it. I can see it now, see it now, see it now.."
Tap to rate this tab
# A B C D E F G H I J K L M N O P Q R S T U V W X Y Z