Song name
# A B C D E F G H I J K L M N O P Q R S T U V W X Y Z

Glee Cast - Mine tab

|-------10-------------------7------|--------10------------------10------|
|--8---8-------8---10---8---8-----10-|--8---8------8---10---7---7------7-|
|----7-------7---7----7---7-----7----|----7------7---7----7---7------7---|
|------------------------------------|-----------------------------------|
|------------------------------------|-----------------------------------|
|------------------------------------|-----------------------------------|

|--------10----------------7------|--------10------------|
|--8---8----8---10---8---8-----10-|--8---8------8---10---|
|----7--------7--------7-----7----|----7------7---7-7----|
|---------------------------------|----------------------|------ Intro
|---------------------------------|----------------------|
|---------------------------------|----------------------|

|--3-----3-----3---3-2---3-2---3-2-|
|----3-----3-----3-----3-----3-----|  
|------0-----0---------------------|     X4 - Verse
|----------------------------------|
|----------------------------------|
|----------------------------------|

Prechorus

|--------10--------------------------|-------10------------------10-----|
|--8---8----8---8-10-8---8-10/12--10-|-8---8------8---10---7---7------7-|
|----7--------7--------7-------------|---7------7---7----7---7------7---|
|------------------------------------|----------------------------------|
|------------------------------------|----------------------------------|
|------------------------------------|----------------------------------|

|--------10--------------------------|-------10---------------|
|--8---8----8---8-10-8---8-10/12--10-|-8---8------8---10---7--|
|----7--------7--------7-------------|---7------7---7--7---7--|
|------------------------------------|------------------------|
|------------------------------------|------------------------|
|------------------------------------|------------------------|

Chorus

|--10-----10-----10---10-----10-----10---|-10-----10-----10---|
|-----8------8------8----7------7------7-|----8------8------8-|
|-------7------7-----------7------7------|------7------7------|
|----------------------------------------|--------------------|
|----------------------------------------|--------------------|
|----------------------------------------|--------------------|

|--10-----10-----10-----10-----|
|--8------8------7------7------|
|--7------7------7------7------|
|------------------------------|
|------------------------------|
|------------------------------|

|--10-----10-----10-----10-----0-----|
|-----8-7----8-7----8-7----8-7---8-7-|
|------------------------------------|
|------------------------------------|
|------------------------------------|
|------------------------------------|
Tap to rate this tab
# A B C D E F G H I J K L M N O P Q R S T U V W X Y Z