Song name
# A B C D E F G H I J K L M N O P Q R S T U V W X Y Z

Glee Cast - Mine tab

Originally by Taylor Swift
Standard tuning
No capo
note: there are probably a lot of mistakes but i had originally tabbed this song 
for my own personal use but since a lot of people asked for the tabs, here you go.
wouldn't hurt to check out my video here! http://www.youtube.com/watch?v=F-_SRSlkDn4&feature=plcp
also Tumblr: nayagronsky.tumblr.com
"I COUNTED THE NUMBER OF TIMES YOU SMILE AT ME AND I'D DIE ON DAYS THAT YOU DIDN'T."
"YOU KNOW I WILL ALWAYS LOVE YOU THE MOST."

INTRO:
e|--------10-------------------7--------|---------10------------------10------|
B|--8---8------8---10---8---8-----10----|--8---8------8---10---7---7------7---|
G|----7------7---7----7---7-----7----7--|----7------7---7----7---7------7-----|
D|--------------------------------------|-------------------------------------|
A|--------------------------------------|-------------------------------------|
E|--------------------------------------|-------------------------------------|

e|--------10-------------------7--------|---------10------10------------------|
B|--8---8------8---10---8---8-----10----|--8---8------8---10------------------|
G|----7------7---7----7---7-----7----7--|----7------7---7--7------------------|
D|--------------------------------------|-------------------------------------|
A|--------------------------------------|-------------------------------------|
E|--------------------------------------|-------------------------------------|

VERSE 1:
You were in college...
e|---------------------|--------------------|
B|--8------8------8----|--8-7---8-7---8-7---|
G|----7------7------7--|------7-----7-------|
D|------10-----10------|--------------------|  x3
A|---------------------|--------------------|
E|---------------------|--------------------|

Wondering why we bother with love...
e|---------------------|--------------------|
B|--8------8------8----|--8-7---8-let ring--|
G|----7------7------7--|------7-------------|
D|------10-----10------|--------------------|
A|---------------------|--------------------|
E|---------------------|--------------------|

REPEAT INTRO FOR PRECHORUS

CHORUS:
Do you remember...
e|--10-----10-----10----|--10-----10------10-----|--10-----10------10----|--7-7-5-5--|
B|-----8------8------8--|-----8-------8-------8--|-----7------7-------7--|--8-8-7-7--|
G|-------7------7-------|-------7-------7--------|-------7-------7-------|-----------|
D|----------------------|------------------------|-----------------------|-----------|  x2
A|----------------------|------------------------|-----------------------|--7-7-5-5--|
E|----------------------|------------------------|-----------------------|-----------|

(little instrumental thing)
e|--10------10------10------10------10-------|
B|-----8-------8-------8-------8-------8-----|
G|-------11------11------11------11------11--|
D|-------------------------------------------|
A|-------------------------------------------|
E|--8-let ring-------------------------------|

VERSE 2:
Flash forward...
e|--x-x--|
B|--8-7--|  T  T
G|--7-7--|  A  A
D|--7-7--|  P  P
A|--5-5--|
E|--5-5--|

And there's a drawer...
e|---------------------|--------------------|
B|--8------8------8----|--8-7---8-7---8-7---|
G|----7------7------7--|------7-----7-------|
D|------10-----10------|--------------------|  x2
A|---------------------|--------------------|
E|---------------------|--------------------|

You say we'll never...
e|---------------------|--------------------|
B|--8------8------8----|--8-7---8-let ring--|
G|----7------7------7--|------7-------------|
D|------10-----10------|--------------------|
A|---------------------|--------------------|
E|---------------------|--------------------|

REPEAT INTRO FOR PRECHORUS

REPEAT CHORUS x4

(little instrumental thing again)
e|--10-----10-----10-----10----10-----10--|
B|-------8------8------8------8-----8-----|
G|----11-----11-----11-----11----11-------| 
D|----------------------------------------|  x2
A|----------------------------------------|
E|--8-let ring----------------------------|

BRIDGE:
And I remember that fight...
e|-------------------|-------------------|---------------------|
B|------3-----3------|------3-----3------|------3------3-------|
G|----0-----0-----0--|----0-----0-----0--|----0------0------0--|
D|--2-----2-----2----|-------------------|--0------0------0----|
A|-------------------|--3-----3-----3----|---------------------|
E|-------------------|-------------------|---------------------|

first ending:
e|-------------------|
B|------3-----3------|
G|----0-----0-----0--|
D|--0-----0-----0----|   repeat that ^^^
A|-------------------|
E|-------------------|

second ending:
e|--2-----3---5--|
B|---------------|
G|------0--------|
D|----0-----0----|
A|---------------|
E|---------------|

Braced myself...
e|--------10-------------------7--------|---------10----------------------|
B|--8---8------8---10---8---8-----10----|--8---8------8---10---7---7---7--|
G|----7------7---7----7---7-----7----7--|----7------7---7----7---7---9----|
D|--------------------------------------|---------------------------------|
A|--------------------------------------|---------------------------------|
E|--------------------------------------|---------------------------------|

e|--------10-------------------7--------|---------10----------------------------|--0--|
B|--8---8------8---10---8---8-----10----|--8---8------8---10---7---7-10---8-----|--5--|
G|----7------7---7----7---7-----7----7--|----7------7---7----7---7------7----7--|--0--|
D|--------------------------------------|---------------------------------------|--2--|
A|--------------------------------------|---------------------------------------|--3--|
E|--------------------------------------|---------------------------------------|-----|
(or a simple C chord though it doesn't sound as correct)

CHORUS:
You said "I remember"...
e|--10-----10-----10----|--10-----10------10-----|--10-----10------10----|--10---10---10---10----|
B|-----8------8------8--|-----8-------8-------8--|-----7------7-------7--|-----8----8----7----7--|
G|-------7------7-------|-------7-------7--------|-------7-------7-------|-----------------------|
D|----------------------|------------------------|-----------------------|-----------------------|
A|----------------------|------------------------|-----------------------|-----------------------|
E|----------------------|------------------------|-----------------------|-----------------------|

I fell in love...
e|--10-----10-----10----|--10-----10------10-----|--10-----10------10----|--7-7-5-5--|
B|-----8------8------8--|-----8-------8-------8--|-----7------7-------7--|--8-8-7-7--|
G|-------7------7-------|-------7-------7--------|-------7-------7-------|-----------|
D|----------------------|------------------------|-----------------------|-----------|  x3
A|----------------------|------------------------|-----------------------|--7-7-5-5--|
E|----------------------|------------------------|-----------------------|-----------|

REPEAT INTRO FOR OUTRO
Tap to rate this tab
 
# A B C D E F G H I J K L M N O P Q R S T U V W X Y Z