Song name
# A B C D E F G H I J K L M N O P Q R S T U V W X Y Z

Glee - No Surrender tab

Hey guys, my tab of bruce's "No surrender", covered in the episode "The Quarterback"

Please let me know any changes you guys would 


CAPO ON THE 3rd 

Chords are (relative to capo) D A and G


Intro

e|-------0--------------0---------------------------|
B|-----3---3---3------3---3---3-------3-------------|
G|---2-------2------2-------2-------2---2---2-------|
D|-0------------------------------0-------0---------|
A|----------------0---------------------------------|
E|------------------------------3-------------------|
    

Verses

e|-------0--------------0-------------0-------------0--------------------------------------------|
B|-----3---3---3------3---3---3-----3---3---3-----3---3---3--------3-------------3---------------|
G|---2-------2------2-------2-----2-------2-----2-------2--------2---2---2-----2---2---2---------|
D|-0--------------0--------------------------------------------0-------0-----0-------0-----------|
A|------------------------------0-------------0--------------------------------------------------|
E|-----------------------------------------------------------3-------------3---------------------|

e|-------0--------------0-------------------------|
B|-----3---3---3------3---3---3-------------------|
G|---2-------2------2-------2---------------------|
D|-0----------------------------------------------|
A|----------------0-------------------------------|
E|------------------------------------------------|
    




Chorus 

1st Time

        D      A                     G        D
Well we made a promise we swore we'd always remember
     G          A     D
No retreat baby no surrender



2nd Time


        D      A                     G        D
Well we made a promise we swore we'd always remember
     G          A     D
No retreat baby no surrender
      D               A                   G        D
Blood brothers in the stormy night with a vow to defend
     G          A     D
No retreat baby no surrender



Well that's about it, any sugestion or doubt of any kind, do not hesitate to leave a comment.
Tap to rate this tab
 
# A B C D E F G H I J K L M N O P Q R S T U V W X Y Z