Song name
# A B C D E F G H I J K L M N O P Q R S T U V W X Y Z

Glen Burtnick - Another tab

e--------------------------------------|
B------12-----12-----------15----13-12-|
G----12-----12-----------12----12---12-|
D--14-----14----14-----14----14--------|
A--------------------------------------|
E--------------------------------------|
  Em


e------------------------------------------|
B------12-----12---------10-----8-------12-|
G----12-----12---------11------9--------12-|
D--14-----14----14---12------10--10-----14-|
A------------------------------------------|
E------------------------------------------|
  Em			D	C


e--------------------------------------|
B------12-----12-----------15----13-12-|
G----12-----12-----------12----12---12-|
D--14-----14----14-----14----14--------|
A--------------------------------------|
E--------------------------------------|
  Em


e--------------------------------8-7---|
B------12-----12---------10-----8------|
G----12-----12---------11------9-------|
D--14-----14----14---12------10--------|
A--------------------------------------|
E--------------------------------------|
  Em			D	C


e-----------------------------------------|
B----12--15--17--12--12--15--17--12-------|
G-----------------------------------------|
D-----------------------------------------|
A-----------------------------------------|
E-----------------------------------------|

e---------------------------------------------|
B----12--15--17--12--12--15--17--12---12------|
G-------------------------------------14------|
D-------------------------------------^^------|
A---------------------------------------------|
E---------------------------------------------|

e-----------------------------------------------|
B----12--15--17--12--12--15--17--12--15--13-12--|
G-----------------------------------------------|
D-----------------------------------------------|
A-----------------------------------------------|
E-----------------------------------------------|

e------------------------------------------|
B----12--15--17--12--12--------------------|
G------------------------14--12------11----|
D------------------------^^-------------14-|
A------------------------------------------|
E------------------------------------------|

e--------------|
B--------------|
G-------12-----|
D----14----14--|
A--------------|
E--------------|

Repeat and fade...
Tap to rate this tab
# A B C D E F G H I J K L M N O P Q R S T U V W X Y Z