Song name
# A B C D E F G H I J K L M N O P Q R S T U V W X Y Z

Glen Hansard And Marketa Irglova - Falling Slowly tab

-------------------------------------------------------------------------------
              FALLING SLOWLY - Glen Hansard And Marketa Irglova
-------------------------------------------------------------------------------
Tabbed by: H!$0wN
Email: theshadow1389@gmail.com
Tuning: Standard


Intro:
  C                   F                 C                  F
e----------0------------------1----0-------------0--------------------------|
B-1---3----------3----1---3-------------1---3---------3----1---1---1---1----|
G---0---0----0-----0----0---0---0----0-----0---0----0----0----2---2---2---2-|
D---------------------------------------------------------------------------|
A-3-------------------------------------3-----------------------------------|
E---------------------1------------------------------------1----------------|

Verse 1:
  C                   F                 C                  F
e----------0------------------1----0-------------0--------------------------|
B-1---3----------3----1---3-------------1---3---------3----1---1---1---1----|
G---0---0----0-----0----0---0---0----0-----0---0----0----0----2---2---2---2-|
D---------------------------------------------------------------------------|
A-3-------------------------------------3-----------------------------------|
E---------------------1------------------------------------1----------------|
 I   don't know you   but I   want you  all the  more for that

  C                        F                 C                  F
e------------0---------------------1----0-------------0--------------------------|
B-1----3------------3------1---3-------------1---3---------3----1---1---1---1----|
G---0----0-----0------0------0---0---0----0-----0---0----0----0----2---2---2---2-|
D--------------------------------------------------------------------------------|
A-3------------------------------------------3-----------------------------------|
E--------------------------1------------------------------------1----------------|
 Words fall through me and always fool me    and I   can't  react

Bridge:
  Am         G          F         G                  Am         G                F  Fadd9 (strum)
e--------------------------------------------------------------------------------1----3----------|
B-------1----0-------0-------1----0------------0-----------1----0------------0---1----1----------|
G-2-------------0-------2--------------0-------------2---------------0-----------2----2----------|
D----2----2--------0------3----3-----------0------------2----2------------0------3----3----------|
A-0--------------------------------------------------0---------------------------3----x----------|
F------------2----------0---------2-----------------------------2----------------1----1----------|
  Games that never a - mount to  more than they're   meant will play them-selves out.

Chorus:
C                 Fadd9             Am7                  Fadd9
Take this sinking boat and point it home we've still got time
C                  Fadd9             Am7                   Fadd9
Raise your hopeful voice you had the choice you've made it known

Verse 2:
  C                   F                 C                  F
e----------0------------------1----0-------------0--------------------------|
B-1---3----------3----1---3-------------1---3---------3----1---1---1---1----|
G---0---0----0-----0----0---0---0----0-----0---0----0----0----2---2---2---2-|
D---------------------------------------------------------------------------|
A-3-------------------------------------3-----------------------------------|
E---------------------1------------------------------------1----------------|
  Fa- lling slow-ly   eyes that know me and I   can't go back

  C                   F                 C                  F
e----------0------------------1----0-------------0--------------------------|
B-1---3----------3----1---3-------------1---3---------3----1---1---1---1----|
G---0---0----0-----0----0---0---0----0-----0---0----0----0----2---2---2---2-|
D---------------------------------------------------------------------------|
A-3-------------------------------------3-----------------------------------|
E---------------------1------------------------------------1----------------|
  Moods that take me  and e-  rase me   and I'm painted black

Bridge:
     Am         G             F          G                 Am         G               F Fadd9(strum)
e -------------------------------------------------------------------------------------1----3----|
B ---------1----0-----------0-------1----0--------------0--------1----0------------0---1----1----|
G ---2--------------0---------2-----------------0----------2---------------0-----------2----2----|
D ------2----2------------0-----3-----3--------------0--------2----2------------0------3----3----|
A ---0-----------------------------------------------------0---------------------------3----x----|
F --------------2-------------0----------2----------------------------2----------------1----1----|
Well You  have  suffered  e-  nough and  warred with your- self  it's time that you    wo-on

Chorus:
Caddb9            F                 Am7                  F
Take this sinking boat and point it home we've still got time
Caddb9             F                 Am7                   F
Raise your hopeful voice you had the choice you've made it known
Caddb9         F               Am7            F
Falling slowly sing your me-lo-dy I'll sing a-long

Caddb9   F   Am   F 

F x7 bars

F x5 single strum

Outro:
  C                   F                 C                  F                C
e----------0------------------1----0-------------0----------------------------|
B-1---3----------3----1---3-------------1---3---------3----1---1---1---3----1-|
G---0---0----0-----0----0---0---0----0-----0---0----0----0----2---2---2---2---|
D-----------------------------------------------------------------------------|
A-3-------------------------------------3-----------------------------------3-|
E---------------------1------------------------------------1------------------|

CHORD CHART
    C   Caddb9   F  *Fadd9   Am   Am7   G
e---0-----3------1-----3-----0-----3----3----|
B---1-----2------1-----1-----1-----1----0----|
G---0-----0------2-----2-----2-----2----0----|
D---2-----2------3-----3-----2-----2----0----|
A---3-----3------3-----x-----0-----0----2----|
E---x-----x------1-----1-----x-----x----3----|

*wrap thumb around for Fadd9
Tap to rate this tab
# A B C D E F G H I J K L M N O P Q R S T U V W X Y Z