Song name
# A B C D E F G H I J K L M N O P Q R S T U V W X Y Z

Glen Hansard And Marketa Irglova - When Your Minds Made Up chords

Highlighted       Show chord diagrams
When your mind's made up - Glen Hansard And Marketa Irglova

G/Am : E-0-
       B-1-
       G-0-
       D-2-
       A-3-
       E-3-

Intro :

 C
E------------------------------------|
B-------1---------1------1---------1-|
G-----0---0-----0------0---0-----0---|
D------------------------------------|
A--3---------3------3---------3------|
E------------------------------------|

 Am
E------------------------------------|
B-------1---------1------1---------1-|
G-----2---2-----2------2---2-----2---|
D------------------------------------|
A--0---------0------0---------0------|
E------------------------------------|

 G/Am
E------------------------------------|
B-------1---------1------1---------1-|
G-----0---0-----0------0---0-----0---|
D------------------------------------|
A------------------------------------|
E--3---------3------3---------3------|

 F
E------------------------------------|
B------------------------------------|
G-------2---------2------2---------2-|
D-----3---3-----3------3---3-----3---|
A------------------------------------|
E--1---------1------1---------1------|

Couplet

  C
so
Am
if you ever want something
G
and your call comes
F
then I'll come running
Am
to fight
C
and I'll be at your door
G
when there's nothing
F
worth running for

Refrain

          Am
when your mind's made up
          G
when your mind's made up
          F
there's no point trying to change it
          Am
when your mind's made up
          G
when your mind's made up
          F
there's no point trying to stop it

Couplet

C
you see
Am
you're just like everyone
G
when the shit falls
F
all you want to do is run
C
away
Am
and hide all by yourself
G
when it's far from
F
there's nothing else

Refrain

          Am
when your mind's made up
          G
when your mind's made up
          F
there's no point trying to change it
          Am
when your mind's made up
          G
when your mind's made up
          F
there's no point even talking
          Am
when your mind's made up
          G
when your mind's made up
          F
there's no point trying to fight it
          Am
when your mind's
       G   F   Am   G   F   Am   G
your mind's
        F   Am   G   F   Am   G   F  Am   G   F
there's no point trying to change it

Couplet

C
so
Am
if you ever want something
G
when your call comes
F
then I'll come running
Tap to rate this tab
 
# A B C D E F G H I J K L M N O P Q R S T U V W X Y Z