Song name
# A B C D E F G H I J K L M N O P Q R S T U V W X Y Z

Glen Hansard And Marketa Irglova - Drown Out tab

DROWN OUT
Glen Hansard

Each of the four notes that are shown are finger picked using the pattern (shown at the end)

INTRO
e|--------2*---2*-------------2*------------|
B|---0--------------0----0---------0----0---|
G|---2----2----2----2----2----2----2----2---|
D|---0----0----0----0----0----0----0----0---|
A|---2----2----2----2----2----2----2----2---|
E|------------------------------------------|

VERSE
e|---------------------------------2*-----------------------2*------------|
B|---0----0----0----0----0----0---------0----0---------0---------0----0---|
G|---2----2----2----2----2----2----2----2----2---------2----2----2----2---|
D|---0----0----0----0--------------0----0--------------0----0----0----0---|
A|---2----2--------------2----2--------------2---------2----2----2----2---|
E|-------------3----2----0----0----3----2----0----0-----------------------|

Drown out the voice that breaks the silence and talks the joy out of everything.

e|---2*----------------------------2*-----------------------2*------------|
B|--------0----0----0----0----0---------0----0---------0---------0----0---|
G|---2----2----2----2----2----2----2----2----2---------2----2----2----2---|
D|---0----0----0----0--------------0----0--------------0----0----0----0---|
A|---2----2--------------2----2--------------2---------2----2----2----2---|
E|-------------3----2----0----0----3----2----0----0-----------------------|

 You were found out and had to walk in darkness without the only thing you care about.

BRIDGE
e|----------------------------------------------------------------------------------|
B|---2----2----3----3----0----0----3----0----2----2----0----0----0----0----2--------|
G|---2----2----4----4----4----4----4----4----2----2----4----4----4----4----2--------|
D|---4----4----4----4----0----0----4----4----4----4----4----4----0----0----2--------|
A|-------------2----2--------------2----2--------------2----2--------------0----0---|
E|---2----2--------------3----3--------------2----2--------------3----3-------------|

   And we drive away,     and head for south,  we found our way,  and blocked it out.

CHORUS
e|---2---------------------------------------2--------------------------------------|
B|--------0----3----0----0----0----3----3---------0----3----0----0----0----3--------|
G|---0----0----4----4----0----0----4----4----0----0----4----4----0----0----4--------|
D|---0----0----4----4----2----2----4----4----0----0----4----4----2----2----4--------|
A|-------------2----2----2----2----2----2--------------2----2----2----2----2----2---|
E|---3----3----------------------------------3----3---------------------------------|

          Cry alone,      and die alone,          pray alone,         stay alone.

VERSE
e|-----------------------------------------------------2*-----------------------2*------------|
B|---0----0----0----0----0----0----0----0----0----0---------0----0---------0---------0----0---|
G|---2----2----2----2----2----2----2----2----2----2----2----2----2---------2----2----2----2---|
D|---0----0----0----0----0----0----0----0--------------0----0--------------0----0----0----0---|
A|---2----2----2----2----2----2--------------2----2--------------2---------2----2----2----2---|
E|---------------------------------3----2----0----0----3----2----0----0-----------------------|

 You were burned out and had to stop before all hell broke and finally took, took its toll.

BRIDGE
e|----------------------------------------------------------------------------------|
B|---2----2----0----0----0----0----3----0----2----2----0----0----0----0----0----0---|
G|---2----2----4----4----4----4----4----4----2----2----4----4----4----4----4----4---|
D|---4----4----4----4----0----0----4----4----4----4----4----4----0----0----4----4---|
A|-------------2----2--------------2----2--------------2----2--------------2----2---|
E|---2----2--------------3----3--------------2----2--------------3----3-------------|

    And save our souls, we’re playing dead, and we mined for gold, in a heart of lead.

e|---------------------------------------------------------------------------------|-------|
B|---2----2----0----0----0----0----3----0----2----2----0----0----0----0----2-------|-------|
G|---2----2----4----4----4----4----4----4----2----2----4----4----4----4----2-------|----0--|
D|---4----4----4----4----0----0----4----4----4----4----4----4----0----0----2-------|---2---|
A|-------------2----2--------------2----2--------------2----2--------------0----0--|--0----|
E|---2----2--------------3----3--------------2----2--------------3----3------------|-------|

      And turn around,    and save yourself,   we found the way,  and blocked it out.

CHORUS
e|---2---------------------------------------2--------------------------------------|
B|--------0----3----0----0----0----3----3---------0----3----0----0----0----0--------|
G|---0----0----4----4----0----0----4----4----0----0----4----4----0----0----4--------|
D|---0----0----4----4----2----2----4----4----0----0----4----4----2----2----4--------|
A|-------------2----2----2----2----2----2--------------2----2----2----2----2----2---|
E|---3----3----------------------------------3----3---------------------------------|

          Cry alone,      and die alone,      and pray alone,         stay alone.

OUTRO
e|---2*--------2*--------2*--------2*------------------2*--------2*--------2*------------|
B|--------0---------0---------0---------0----0----0---------0---------0---------0--------|
G|---2----2----2----2----2----2----2----2----2----2----2----2----2----2----2----2--------|
D|---0----0----0----0----0----0----0----0----0----0----0----0----0----0----0----0--------|
A|---2----2----2----2----2----2----2----2----2----2----2----2----2----2----2----2----2---|
E|---------------------------------------------------------------------------------------|

                         Drown out.          drown out.

__________________________________________________________________________________________


Normal finger picking pattern:
e|-----------------------------------|
B|-----------------0-----0-----------|
G|-------------2---------------2-----|
D|-------0-------0-------0-------0---|
A|---2-------2-------2-------2-------|
E|-----------------------------------|

Starred (*) pattern:
e|-----------------2-----------------|
B|-----------------------------------|
G|-------------2---------------2-----|
D|-------0-------0-------0-------0---|
A|---2-------2-------2-------2-------|
E|-----------------------------------|
Tap to rate this tab
# A B C D E F G H I J K L M N O P Q R S T U V W X Y Z