Song name
# A B C D E F G H I J K L M N O P Q R S T U V W X Y Z

Glen Hansard - Cry Me A River chords

Highlighted       Show chord diagrams
-------------------------------------------------------------------------------
			     Cry Me A River - Glen Hansard
-------------------------------------------------------------------------------
Tabbed by: tele.thin
Email: goesl@gmx.at

Tuning: Standard

Capo on 4th

Hi this is my first tab so be gentle ;).
This is very easy to play, just listen carfully for rhythm and stuff.


     Em        Bm7        C        Am
e|---0----------2---------0--------0----------|
B|---0----------3---------1--------1----------|
G|---0----------2---------2--------2----------|
D|---2----------4---------0--------2----------|
A|---2----------2---------3--------0----------|
E|---0----------2---------x--------x----------|

Loop this from start to end, there you go! Have fun!

===============================================================================
Tap to rate this tab
 
# A B C D E F G H I J K L M N O P Q R S T U V W X Y Z