Song name
# A B C D E F G H I J K L M N O P Q R S T U V W X Y Z

Glen Hansard - Leave tab

"Leave," from the "Once" soundtrack.

I figured this out by ear, and it's 100% perfect-- if played correctly.

Standard Tuning!

VERSES
E)---0-0-0----0-0-0----0-0-0----0-0-0-0-0-|
B)---0-0-0----0-0-0----0-0-0----0-0-0-0-0-|
G)---9/8-8----8-8-8----8-8-8----6-6-6-6-6-|
D)---9-9-9----9-9-9----9-9-9----7-7-7-7-7-|
A)---7-7-7----7-7-7----9-9-9----7-7-7-7-7-|
E)-0--------9--------7--------5-----------|
I can't wait forever...

CHORUSES
E)---0-0-0-0-0----0-0-0-0-0----0-0-0-0-0-|
B)---0-0-0-0-0----0-0-0-0-0----0-0-0-0-0-|
G)---6-6-4-4-4----4-4-4-4-4----2-2-2-2-2-|
D)---6-6-6-6-6----4-4-4-4-4----2-2-2-2-2-|
A)-4------------2------------0-----------|
E)---------------------------------------|
Leave, leave, and free yourself...

E)---0-0-0-0-0----0-0-0-0-0----0-0-0-0-0-0-0-0-0-0-0-|
B)---0-0-0-0-0----0-0-0-0-0----0-0-0-0-0-0-0-0-0-0-0-|
G)---6-6-4-4-4----4-4-4-4-4----2-2-2-2-2-2-2-2-2-2-2-|
D)---6-6-6-6-6----4-4-4-4-4----2-2-2-2-2-2-2-2-2-2-2-|
A)-4------------2------------0-----------------------|
E)---------------------------------------------------|
Leave, leave, I don't understand...

E)-0-0-0-0-0-0--0-0-0-0-0-0--0-0-0-0-0-0-0-0-0-0-0-0-|
B)-0-0-0-0-0-0--0-0-0-0-0-0--0-0-0-0-0-0-0-0-0-0-0-0-|
G)-6-6-6-6-6-6--4-4-4-4-4-4--0-0-0-0-0-0-0-0-0-0-0-0-|
D)-6-6-6-6-6-6--4-4-4-4-4-4--4-4-4-4-4-4-4-4-4-4-4-4-|
A)-4-4-4-4-4-4--2-2-2-2-2-2--4-4-4-4-4-4-4-4-4-4-4-4-|
E)---------------------------2-2-2-2-2-2-2-2-2-2-2-2-|
LEEEEEEAVE, LEEEEEAVE, AHHHHHHHHHHHHH!

OUTRO
E)-0-0-0-0-0-0--0-0-0-0-0-0----|
B)-0-0-0-0-0-0--0-0-0-0-0-0--5-|
G)-1-1-1-1-1-1--5-5-5-5-5-5--6-|
D)-2-2-2-2-2-2--6-6-6-6-6-6--6-|
A)-2-2-2-2-2-2--6-6-6-6-6-6--4-|
E)-0-0-0-0-0-0--4-4-4-4-4-4----|
Tap to rate this tab
 
# A B C D E F G H I J K L M N O P Q R S T U V W X Y Z