Song name
# A B C D E F G H I J K L M N O P Q R S T U V W X Y Z

Glen Hansard - The Storm Its Coming chords

Highlighted       Show chord diagrams
Glen Hansard
The Storm, it's coming

Didn't bother tabbing every note so I just put how many time each chord is played 
underneath. Very good easy song!! This may not be perfect but I think it sounds just fine.





Verse:

    C        Em      F       A      G
e|--0--------0-------1-------x------3---------------------------------------|
B|--1--------0-------1-------x------3---------------------------------------|
G|--0--------0-------2-------x------4---------------------------------------|
D|--2--------2-------3-------7------5---------------------------------------|
A|--3--------2-------3-------7------5---------------------------------------|
E|-----------0-------1-------5------3---------------------------------------|
   x4       x4      x4      x2     x2

Chorus:

     F   A   G
e|---1---x---3---|
B|---1---x---3---|
G|---2---x---4---|  X2
D|---3---7---5---|
A|---3---7---5---|
E|---1---5---3---|
    x4   x2  x2
Tap to rate this tab
 
# A B C D E F G H I J K L M N O P Q R S T U V W X Y Z