Song name
# A B C D E F G H I J K L M N O P Q R S T U V W X Y Z

Glen Hansard - What Are We Gonna Do tab

-----------------------------------------------------------------------------
                             What Are We Gonna Do - Glen Hansard
-----------------------------------------------------------------------------
Tabbed by: SohnDerLeere
E-mail: nicolai.usbeck@online.de

Tuning: standard

Intro:
    Em     D/F#     G               Am        G       D/F#      Em
e|--------------------------------------------------------------------------|
B|------------------0-----------------1-------0-----------------------------|
G|--0-------2------------------------------------------2--------0-----------|
D|------0------0-------0------------------0--------0--------------2---------|
A|------------------------------------0-------------------0-------- 2-------|
E|--0-------2-------3-------------------------3--------2--------0-----------|

    Am     G      D/F#          G        D/F#     Em
e|--------------------------------------------------------------------------|
B|--1------0--------------------0-------------------------------------------|
G|----------------2----------------------2--------0-------------------------|
D|-----0------0------0-------------0--------0---------2---------------------|
A|--0-----------------------------------------------------------------------|
E|---------3------2-------------3--------2--------0-------------------------|

(He plays this the whole song through.
Some notes are very quiet.)

What are we gonna do
If we lose that fire
What are we gonna do
If we start to doubt, if that fire goes out
I don't wanna lose you
To some bullshit hurt that could've been helped
I'm trying to tell you something
That good good heart is your greatest will
So what are we gonna do
If we lose that fire
What are we gonna do
If we start to doubt, if that fire goes out

I don't wanna change you
But you're a long, long way from the path you came
I'm trying to show you something
Good good heart will always find love

What are we gonna do
If we lose that fire
What are we gonna do
If you start to doubt, if that fire goes out 


Have fun. 4815162342
Tap to rate this tab
# A B C D E F G H I J K L M N O P Q R S T U V W X Y Z