Song name
# A B C D E F G H I J K L M N O P Q R S T U V W X Y Z

Glen Hansard - You Will Become tab

-------------------------------------------------------------------------------
                             You Will Become - Glen Hansard
-------------------------------------------------------------------------------
Tabbed by: Michael Abt
Email: michael@webwelten.com

Tuning: EADGBe


    Bm                                           Bm
e|---------------------------------------------------------------------------|
B|------3---3----------3---3----------3---3----------3---3-------------------|
G|------4---4----------4---4----------4---4----------4---4-------------------|
D|----4---4---4------4---4---4------4---4---4------4---4---4-----------------|
A|--2--------------2--------------2--------------0---------------------------|
E|---------------------------------------------------------------------------|

    Bm
e|---------------------------------------------------------------------------|
B|------3---3----------3---3----------3---3----------3---3-------------------|
G|------4---4----------4---4----------4---4----------4---4-------------------|
D|----4---4---4------4---4---4------4---4---4------4---4---4-----------------|
A|---------------------------------------------------------------------------|
E|--3--------------3--------------3--------------3---------------------------|

    Bm                            Bm
e|---------------------------------------------------------------------------|
B|------3---3----------3---3----------3---3----------3---3-------------------|
G|------4---4----------4---4----------4---4----------4---4-------------------|
D|----4---4---4------4---4---4------4---4---4------4---4---4-----------------|
A|---------------------------------------------------------------------------|
E|--2--------------2--------------3--------------3---------------------------|


1. In time this won't even matter, 
this story will belong in the past.
We'll talk about everything 'till it's easier.
Your beauty is nothing compared to what
you will become (3x) in time become.

2. And we talked about the talk of a gold ring.
And you brought me one step closer to the heart of things.
And we talked about everything 'till we laughed about it.
Your honesty is nothing compared to what
you will become (3x), in time become.

3. In time you won't even notice, 
this chapter will belong on the grass.
We'll talk about everything 'till it's easier.
Your beauty is nothing compared to what
you will become (5x), in time become.
Tap to rate this tab
# A B C D E F G H I J K L M N O P Q R S T U V W X Y Z