Song name
# A B C D E F G H I J K L M N O P Q R S T U V W X Y Z

Glen Porter - She Cries tab

official site: http://www.myspace.com/perfectstrangermusic

main figure:

e||--------------------------------|
B||--------------------------------|
G||---(2)-4-4h5-5-5-4~-------------|
D||--------------------5-7~~-5-4---|  - repeat many times, play "(2)" only once
A||------------------------------7-|
E||--------------------------------|

than  /wah-wah\
e||--6p0-6p0-6p0----------8-------|
B||--------------5/7~-5-7---7~~---|
G||-------------------------------|
D||-------------------------------|
A||-------------------------------|
E||-------------------------------|

and than this 2 figures together

I actually transcribe in C#, this is version for standard tuning, so it may be 
sound some different.
Tap to rate this tab
# A B C D E F G H I J K L M N O P Q R S T U V W X Y Z