Song name
# A B C D E F G H I J K L M N O P Q R S T U V W X Y Z

Glen Porter - Transient tab

-------------------------------------------------------------------------------------------------
                                        Transient - Glen Porter
-------------------------------------------------------------------------------------------------
Tabbed by: Will Smith


This sounds right although you may have to listen to the song a few times to get the timing right.

Also hammer-ons are used frequently.



Tuning: Standard



Intro/Riff 1


e|-------------------------------------------------------------------------------------------------|
B|-------------------------------------------------------------------------------------------------|
G|-------------------------------------------------------------------------------------------------|
D|-----0--4--0--2---2----0--2--0--2--0/4--0/2--------0--4--0--2---2----0--2--0--2--0/4--0/2--------|
A|--2---------------------------------------------2------------------------------------------------|
E|-------------------------------------------------------------------------------------------------|

        (repeat till next riff)


Riff 2 - Broken Chords (fingerpicking)


e|-------------------------------------------------------------------------------------------------|
B|-------------------------------------------------------------------------------------------------|
G|--------4-----------4-----------4-----------4-----------4-----------4-----------4-----------4----|
D|-----4-----4-----4-----4-----4-----4-----4-----4-----4-----4-----4-----4-----4-----4-----4-----4-|
A|--2-----------2-----------0-----------0----------------------------------------------------------|
E|--------------------------------------------------2-----------2-----------2-----------2----------|

        (repeat till next riff)


Riff 3 - Lead (played only twice through)


e|-------------------------------------------------------------------------------------------------|
B|--2/4----4--4/5----5--5/7----7--7/5---5--7--9-9-9-9-9--9--9/10--10-10/9----9--9/10--10--10-------|
G|-------------------------------------------------------------------------------------------------|
D|-------------------------------------------------------------------------------------------------|
A|-------------------------------------------------------------------------------------------------|
E|-------------------------------------------------------------------------------------------------|

        (played over the top of riff 2)


Riff 4 (same as riff 1 but a higher octave, played in synch with riff towards the end of the song)


e|-------------------------------------------------------------------------------------------------|
B|--------7--3ho5--5----3--5--3--5--5/7--5---------------------------------------------------------|
G|--4--7-------------------------------------------------------------------------------------------|
D|-------------------------------------------------------------------------------------------------|
A|-------------------------------------------------------------------------------------------------|
E|-------------------------------------------------------------------------------------------------|

        (repeated a few times)
Tap to rate this tab
# A B C D E F G H I J K L M N O P Q R S T U V W X Y Z