Song name
# A B C D E F G H I J K L M N O P Q R S T U V W X Y Z

Glenn Fredly - Malam Kudus tab

Help us improve GuitareTab! Take a short survey!
Yoo..This is my first time to write a tab...
actually...^^
hihihihi...
so please enjoy it...
My name is Wijaya... Can call me Qibo...
(wijaya_dj@yahoo.co.id)
hihihihi~~

Song   : Malam Kudus
Artist : Glenn Fredly
Tab by : ~Q.~


Malam kudus sunyi senyap, duni- a   terlelap
                                               
E||--0---2--0---------0---2--0----|--7---7---------5---5---0-----|
B||------------2----------------2-|---------9--------------------|
G||-------------------------------|------------------------------|
D||-------------------------------|------------------------------|
A||--0---------0------0---------0-|------------------------------|
E||-------------------------------|--7------7------5-------5-----|


Hanya dua berjaga terus...ayah bunda mesra dan kudus
                                       
E||--2--2--2h-5--4-2--0--2--0-----|--2--2--2h-5--4-2--0--2--0-----|
B||----------------------------2--|----------------------------2--|
G||-------------------------------|-------------------------------|
D||--0-----0----------------------|--0-----0----------------------|
A||-------------------0--------0--|-------------------0--------0--|
E||-------------------------------|-------------------------------|


Anak  tidur tenang...............

E||--7--7--10--9--7------------9--||
B||------------------10--9--10----||
G||-------------------------------||
D||-------------------------------||
A||-------------------0--------0--||
E||--7-----7----------------------||



||ENDING||

Anak  tidur tenang...............

||-------5----------------------------|
||----------5-----5-------------------|
||-------------6-----7--4-------------|
||-------------------------7----------|
||-------7--------7--------0----------|
||------------------------------------|


||OTHER ENDING||

||-------5--9--10--9--5--5h-7--5--5---|
||------------------------------------|
||------------------------------------|
||------------------------------------|
||-------7------7---------0-------0---|
||------------------------------------|


Other Lyrics....

Malam kudus sunyi senyap
kabar baik menggegap
Bala surga menyanyikannya
kaum gembala menyaksikannya
lahir Raja shalom, lahir Raja shalom


Malam kudus, sunyi senyap,
bintangMu gemerlap
Jurus'lamat manusia,
ada datang di dunia
Kristus Anak Daud,
Kristus Anak Daud.

Anak kecil, Anak kudus,
Tuhanku Penebus
Tent'ra surga menyanyi merdu,
bawa kabar kedatangan-Mu
Kristus Anak Daud,
Kristus Anak Daud.

Malam kudus, sunyi senyap,
bitang-Mu gemerlap
Aku datang ya Tuhanku,
bersembahyang di kandang-Mu
Dan mengucap syukur,
dan mengucap syukur.


Malam kudus sunyi senyap
siapa yang b'lum lelap
ayah bunda yang tinggallah t'rus
jaga Anak yang Maha Kudus
Anak dalam malaf, Anak di dalam malaf.

Hai, lihatlah! di Efrata
t'rang besar turunlah
waktu tentra surgawi megah
puji Allah sebab nikmatnya
ingat dunia yang g'lap
ingatlah dunia yang g'lap.

Karna salam amat besar
patutlah bergema
bagi dunia yang t'lah tercerai
dari Allah di b'ri Almasih
jadi pohon khalas
jadi k'lak pohon khalas.


Yooo....
Nikmati ^^
Related for Malam Kudus tab