Song name
# A B C D E F G H I J K L M N O P Q R S T U V W X Y Z

Gli Atroci - Sette Uomini tab

intro
A- X8

A-                           C
Sette uomini, vanno nella prateria...
D-                              E-                                  A-
Hanno scoperto con orrore che il metallo non si ascolta nel Far West!


A-                          C
Sette uomini, che convertono i mormoni...
D-                                    E-                            A-
Cosi anche loro andranno in giro a predicare la parola di Angus Young!

Rit:
A-                      C
Non c'e' il Monster Of Metal!
A-                   C
Niente giubbotti di pelle!
D-                  E-                    A-
Si ascolta solo Country e non ti passa piu'!


SOLO:
                   |                |                |                |
e  -------------------------------------------------------------------------|
B  -------------------------------------------------------------------------|
G  14---------------14-12-14-12----------12\/\/\/-----------14-14p12--------|
D  -----------------------------14-12-14--------------14p12----------14-----|
A  -------------------------------------------------------------------------|
E  -------------------------------------------------------------------------|

                   |                |                |                |
e  -------------------------------------------------------------------------|
B  -------------------------------------------------------------------------|
G  12----12-------12-14p12----12--------------------------------------------|
D  ---14----12-14----------14----14-12--------------------------------------|
A  ------------------------------------12\/\/\/\/\/\/-----------------------|
E  -------------------------------------------------------------------------|

Sette uomini, se ne vanno molto allegri...
Hanno convinto i piedi rossi che i Black Sabbath sono come Vanitł!

Rit:
Non c'e' il Monster Of Metal!
Niente giubbotti di pelle!
Si ascolta solo Country e non ti passa pił!
Non c'e' il monsterofleta!
Niente giubbotti di pelle!
Si ascolta solo Country e poi non ti passa piu'!
Tap to rate this tab
 
# A B C D E F G H I J K L M N O P Q R S T U V W X Y Z