Song name
# A B C D E F G H I J K L M N O P Q R S T U V W X Y Z

Gli Atroci - Pennellen tab

Band |---Gli-atroci----|
Song |---Pennellen-----|
Album|-Metallo-o-morte-|
Tabbed by Lele =D

. = palm mute

Intro
|-----------------------------------| x4
|-----------------------------------|
|-----------------------------------|
|-9-----7-9---10-9---7-9------------|
|-7-----5-7---8--7---5-7---7-8-7-8--|
|---0-0-----0------0-----0-5-6-5-6--|
    . .     .      .     .        

Verse
|-----------------------------------| 
|-----------------------------------|
|-----------------------------------|
|-9-----7-9---10-9---7-9------------|
|-7-----5-7---8--7---5-7---7-8-7-8--|
|---0-0-----0------0-----0-5-6-5-6--|
    . .     .      ,     .        

Pre-Chorus
--------------------|
|-------------------|
|-------------------|
|-4----4--4--3-4-3--|
|-2----2--2--1-2-1--|
|-------------------|

Chorus
|---------------------------------------------------------------------|
|---------------------------------------------------------------------|
|-9----5--------------------------------------------------------------|
|-9----5--------7------7------7------7------7------7--4-4-4-4-4-4-4-4-|
|-7----3----55555--55555--55555--55555--55555--55555--2-2-2-2-2-2-2-2-|
|---------------------------------------------------------------------|
            ....   ....   ....   ....   ....   ....   . . . . . 
Tap to rate this tab
# A B C D E F G H I J K L M N O P Q R S T U V W X Y Z