Song name
# A B C D E F G H I J K L M N O P Q R S T U V W X Y Z

Gli Atroci - Voglio Vederti Morire tab

main reef
 --------------|
 --------------|
 ---------7----|
 -2-2-2-2-7-7--|
 -2-2-2-2-5-7--|
E-0-0-0-0---5--|

ritornello             pre-solo
 --------------------  ------|
 --------------------  ------|
 -5-7------------7---  ------|
 -5-7-5-7--2-2-2-7-7-  --9---|
 -3-5-5-7--2-2-2-5-7-  --9---|
E-----3-5--0-0-0---5-  --7---| (...vedo sangue di capra vagante...)

solo (incompleto)
 ----------------------------------------------------------------------------|
 ----------------------------------------------------------------------------|
 ---------------------------------------------------------15-12----15-12-----|
 ----11-12-14-11-12-11------------------------------------------14-------14--|
 -14-------------------12-14---12-14-14-14-14--9-9-10------------------------|
E-----------------------------------------------------12---------------------|
(dopo l'assolo degenera e io non sono in grado di tabbarlo...!!!)
Tap to rate this tab
 
# A B C D E F G H I J K L M N O P Q R S T U V W X Y Z