Song name
# A B C D E F G H I J K L M N O P Q R S T U V W X Y Z

Global Communication - Alpha Phase tab

solo #1

e|-3-1-----3-1-----3-1-----3-1------------------------------|
B|-----134-----341-----134-----341--------------------------|
G|----------------------------------------------------------|
D|----------------------------------------------------------|
A|----------------------------------------------------------|
E|----------------------------------------------------------|


e|-6-5--1--6-5-78--6-5--1--6-5-78---------------------------|
B|-----1-4-------1-----1-4-------1--------------------------|
G|----------------------------------------------------------|
D|----------------------------------------------------------|
A|----------------------------------------------------------|
E|----------------------------------------------------------|


solo #2 ( 10 min ~ , double resolution(?))

e|-----31---------------------------------------------------|
B|-------4--34---1------------------------------------------|
G|----------------------------------------------------------|
D|----------------------------------------------------------|
A|----------------------------------------------------------|
E|----------------------------------------------------------|


e|-----31----3-5--6--3----5--1------------------------------|
B|-------4--------------------------------------------------|
G|----------------------------------------------------------|
D|----------------------------------------------------------|
A|----------------------------------------------------------|
E|----------------------------------------------------------|
Tap to rate this tab
# A B C D E F G H I J K L M N O P Q R S T U V W X Y Z