Song name
# A B C D E F G H I J K L M N O P Q R S T U V W X Y Z

Global Communication - 1431 Obselon Minos tab

#1

e|----------------------------------------------------------| 
B|----------------------------------------------------------| 
G|---------0------------------------------------------------| 
D|--3---------------0----5-32--0----------------------------| 
A|0------2--------------------3-----------------------------| 
E|----------------5-----------------------------------------| 


#2-1

e|----------------------------------------------------------| 
B|-------1--------------------------------------------------| 
G|--2----------023------------------------------------------| 
D|-----32-----------0----5-32--0----------------------------| 
A|----------------------------3-----------------------------| 
E|----------------------------------------------------------| 

#2-2

e|-----------------------------0-1--------------------------| 
B|-------1---------------3----------------------------------| 
G|--2----------023---------0--------------------------------| 
D|-----32-----------0---------------------------------------| 
A|----------------------------------------------------------| 
E|----------------------------------------------------------|

#2-3

e|-----10------------------4-1------------------------------| 
B|-------1---------------4----------------------------------| 
G|--2----------023-------------1-2--------------------------| 
D|------------------0---------------------------------------| 
A|----------------------------------------------------------| 
E|----------------------------------------------------------| 
Tap to rate this tab
# A B C D E F G H I J K L M N O P Q R S T U V W X Y Z