Song name
# A B C D E F G H I J K L M N O P Q R S T U V W X Y Z

Gloc 9 - Martilyo tab

Band / Artist: Gloc 9 ft. Letter Day Story
Title: Martilyo
Tabber: NaPoleon07
Tune: Standard
Legend:
/ =slide up
\ =slide down
. =palm mute
^ =bend
h =hammer
* =harmonics


Intro:
e|---------------------------------------------------------------------|
B|---1-----------1----------1---------1-----------1----------1---------|
G|-------2-----------2----------2---------2-----------2----------2-----|
D|-----------2-----------2--------------------2-----------2------------|
A|---------------------------------------------------------------------|
E|---------------------------------------------------------------------|


e|---------------------------------------------------------------------|
B|---1--------1--------1-------1--------1---------1--------------------|
G|------2--------2--------2-------2--------2---------2-----------------|
D|---------3--------3----------------3--------3------------------------|
A|---------------------------------------------------------------------|
E|---------------------------------------------------------------------|

(then fill-in)
e|---------------------------------------------------------------------|
B|---------------------------------------------------------------------|
G|---------------------------------------------------------------------|
D|---777777777-------333333333-----------------------------------------|
A|---777777777-------333333333-----------------------------------------|
E|---555555555-------111111111-----------------------------------------|


Chorus:
  Dito sa amin na kung san nanggaling, mga makatang ulam at kanin
e|---------------------------------------------------------------------|
B|---------------------------------------------------------------------|
G|---------------------------------------------------------------------|
D|---777777777-------333333333-------555555555-------------------------|
A|---777777777-------333333333-------555555555-------------------------|
E|---555555555-------111111111-------333333333-------------------------|

  Lamang ang bayad pero pumapayag, upang masubukan at mapatunayan
e|---------------------------------------------------------------------|
B|---------------------------------------------------------------------|
G|---------------------------------------------------------------------|
D|---777777777-------333333333-------555555555-------------------------|
A|---777777777-------333333333-------555555555-------------------------|
E|---555555555-------111111111-------333333333-------------------------|

  Lagi mong tatandaan ganito lamang ang dapat na ginagawa mo
e|---------------------------------------------------------------------|
B|---------------------------------------------------------------------|
G|---------------------------------------------------------------------|
D|---777777777-------333333333-------555555555-------------------------|
A|---777777777-------333333333-------555555555-------------------------|
E|---555555555-------111111111-------333333333-------------------------|

  Wag mong palalampasin ang pagkakataon, kailngan pukpukin ang pako para bumaon
e|---------------------------------------------------------------------|
B|---------------------------------------------------------------------|
G|---------------------------------------------------------------------|
D|---777777777-------333333333-------555555555-------------------------|
A|---777777777-------333333333-------555555555-------------------------|
E|---555555555-------111111111-------333333333-------------------------|
  (Repeat intro)


Verse:(Rap)
  Narito nang muli ang isang taong, di nag atubili na aking mabago ang
e|---------------------------------------------------------------------|
B|---------------------------------------------------------------------|
G|---------------------------------------------------------------------|
D|---777777777-------333333333-----------------------------------------|
A|---777777777-------333333333-----------------------------------------|
E|---555555555-------111111111-----------------------------------------|

  Yung pagtingin sa mga taong humahawak ng, mikropono kahit maputuik ay humahakbang
e|---------------------------------------------------------------------|
B|---------------------------------------------------------------------|
G|---------------------------------------------------------------------|
D|---777777777-------333333333-------555555555-------------------------|
A|---777777777-------333333333-------555555555-------------------------|
E|---555555555-------111111111-------333333333-------------------------|

  Lumalakas ang bawat pawis na pumapatak, bawat tunog ng palakpak saki'y tumatatak 
e|---------------------------------------------------------------------|
B|---------------------------------------------------------------------|
G|---------------------------------------------------------------------|
D|---777777777-------333333333-------555555555-------------------------|
A|---777777777-------333333333-------555555555-------------------------|
E|---555555555-------111111111-------333333333-------------------------|

  Pero di tumataas aking mga paa, nakatungtong sa lupa dahil alam ko na
e|---------------------------------------------------------------------|
B|---------------------------------------------------------------------|
G|---------------------------------------------------------------------|
D|---777777777-------333333333-------555555555-------------------------|
A|---777777777-------333333333-------555555555-------------------------|
E|---555555555-------111111111-------333333333-------------------------|

  Ako'y nasa pinas, may pila sa bigas,
e|--------------------------------------------------------------------|
B|--------------------------------------------------------------------|
G|-----------------------------------------4/5------------------------|
D|--------------2--4----2---------------------------------------------|
A|----22---44-----------------44---2-4-2---2/3------------------------|
E|--------------------------------------------------------------------|
      ..   ..   .             ..   . . .

  Ilan lang ang sikat na bulsa'y di butas
e|--------------------------------------------------------------------|
B|--------------------------------------------------------------------|
G|-----------------------------------------4/5------------------------|
D|--------------2--4----2---------------------------------------------|
A|----22---44-----------------44---2-4-2---2/3------------------------|
E|--------------------------------------------------------------------|
      ..   ..   .             ..   . . .

  Para di mautas dapat ay matigas
e|--------------------------------------------------------------------|
B|--------------------------------------------------------------------|
G|-----------------------------------------4/5------------------------|
D|--------------2--4----2---------------------------------------------|
A|----22---44-----------------44---2-4-2---2/3------------------------|
E|--------------------------------------------------------------------|
      ..   ..   .             ..   . . .

  Ang yong mukha kahit pano'y matikman ang katas ng
e|--------------------------------------------------------------------|
B|--------------------------------------------------------------------|
G|-----------------------------------------4/5------------------------|
D|--------------2--4----2---------------------------------------------|
A|----22---44-----------------44---2-4-2---2/3------------------------|
E|--------------------------------------------------------------------|
      ..   ..   .             ..   . . .

  Ubas ang problema'y lutas
e|--------------------------------------------------------------------|
B|--------------------------------------------------------------------|
G|----4-4--4--4/5----------4--4--4--4/5-------------------------------|
D|----4-4--4---------------4--4---------------------------------------|
A|----2-2--2--2/3----------2--2--2--2/3-------------------------------|
E|--------------------------------------------------------------------|
      . .  .               .  .  .

  May maayos na tela maong di kupas
e|--------------------------------------------------------------------|
B|--------------------------------------------------------------------|
G|----4-4--4--4/5----------4--4--4--4/5-------------------------------|
D|----4-4--4---------------4--4---------------------------------------|
A|----2-2--2--2/3----------2--2--2--2/3-------------------------------|
E|--------------------------------------------------------------------|
      . .  .               .  .  .

  Ang sabi mo sakin ay hindi ko na makakaya
e|--------------------------------------------------------------------|
B|--------------------------------------------------------------------|
G|----4-4--4--4/5----------4--4--4--4/5-------------------------------|
D|----4-4--4---------------4--4---------------------------------------|
A|----2-2--2--2/3----------2--2--2--2/3-------------------------------|
E|--------------------------------------------------------------------|
      . .  .               .  .  .

  Pang habulin mga pangarap, ay ipunin at pagkatapos ay higupin
e|--------------------------------------------------------------------|
B|--------------------------------------------------------------------|
G|----4-4--4--4/5----------4--4--4--4/55------------------------------|
D|----4-4--4---------------4--4---------------------------------------|
A|----2-2--2--2/3----------2--2--2--2/33------------------------------|
E|--------------------------------------------------------------------|
      . .  .               .  .  .

  Higupin ng higupin, parang baso na may yelo
e|--------------------------------------------------------------------|
B|--------------------------------------------------------------------|
G|--------------------------------------------------------------------|
D|----4---444--5---555---------4---444--5---555-----------------------|
A|----2---222--3---333---------2---222--3---333-----------------------|
E|--------------------------------------------------------------------|
      .   ...  .   ...         .   ...  .   ...

Iilang salita pa ba ang dapat kong banggaitin na bumebwelo bueno
e|--------------------------------------------------------------------|
B|--------------------------------------------------------------------|
G|--------------------------------------------------------------------|
D|----4---444--5---555---------4---444--5---555-----------------------|
A|----2---222--3---333---------2---222--3---333-----------------------|
E|--------------------------------------------------------------------|
      .   ...  .   ...         .   ...  .   ...

  Yaman din lamang na akoy narito na, sige pakinggan nyo bagong nasulat kong kanta, HUY!
e|--------------------------------------------------------------------|
B|--------------------------------------------------------------------|
G|----2222222222------4444444444---x----------------------------------|
D|----2222222222------4444444444---x----------------------------------|
A|----0000000000------2222222222---x----------------------------------|
E|--------------------------------------------------------------------|


 Lagi mong tatandaan ganito lamang ang dapat na ginagawa mo
e|---------------------------------------------------------------------|
B|---------------------------------------------------------------------|
G|---------------------------------------------------------------------|
D|---777777777-------333333333-------555555555-------------------------|
A|---777777777-------333333333-------555555555-------------------------|
E|---555555555-------111111111-------333333333-------------------------|

  Wag mong palalampasin ang pagkakataon, kailngan pukpukin ang pako para bumaon
e|---------------------------------------------------------------------|
B|---------------------------------------------------------------------|
G|---------------------------------------------------------------------|
D|---777777777-------333333333-------555555555-------------------------|
A|---777777777-------333333333-------555555555-------------------------|
E|---555555555-------111111111-------333333333-------------------------|

  Hindi mo kayang pigilan
e|---------------------------------------------------------------------|
B|---------------------------------------------------------------------|
G|---------------------------------------------------------------------|
D|---777777777-------333333333-------555555555-------------------------|
A|---777777777-------333333333-------555555555-------------------------|
E|---555555555-------111111111-------333333333-------------------------|

Bridge:
  Hindi mo kayang galusan
e|---------------------------------------------------------------------
B|---------------------------------------------------------------------
G|---------------------------------------------------5555555-----------
D|---777777777-------333333333-------555555555-------5555555-----------
A|---777777777-------333333333-------555555555-------3333333-----------
E|---555555555-------111111111-------333333333-------------------------

  Ang puso kong balot ng bakal, na patuloy patuloy sa pagtibok
  ---------------------------------------------------------------------|
  ---------------------------------------------------------------------|
  ---------------------------------------------------------------------|
  -----5555555-----7777777-------33---55-------------------------------|
  -----5555555-----7777777-------33---55-------------------------------|
  -----3333333-----5555555-------11---33-------------------------------|
  (repeat verse)
  (repeat chorus)
  (repeat intro)

Hope you guys like it. Please rate it....
for comments, just mail at napo0791@yahoo.com

Tap to rate this tab
# A B C D E F G H I J K L M N O P Q R S T U V W X Y Z