Song name
# A B C D E F G H I J K L M N O P Q R S T U V W X Y Z

Gloc 9 - Nginiig tab

-------------------------------------------------------------------------------
			     Nginiig- Gloc 9
-------------------------------------------------------------------------------
Tabbed by: Edward Aris D. Fajardo
Email:www.ward_faj@yahoo.com

it's so easy!!!!!
e-------------------0--------------|
B-----0---3-----0-----3------------|
G-------2-----2---------0-----0----|
D-----------2-------------2-0------|
A-----------------3----------------|
E---0------------------------------|
 
hi sa mga ISEDians in MSU
I'm in that school
and I'm proud of it
Tap to rate this tab
# A B C D E F G H I J K L M N O P Q R S T U V W X Y Z