Song name
# A B C D E F G H I J K L M N O P Q R S T U V W X Y Z

Gloria - Minha Paz tab

This is the second guitar:

|-------------------------|--------------------------|
|-------------------------|-----5----------5---------|
|---6---4------6---4------|---6---6-4----6---6-4-----| x2
|-7---7------7---7--------|--------------------------|
|-------------------------|--------------------------|
|-------------------------|--------------------------|

|-------------------------|
|-------------------------|
|---6---4------6---4------|
|-7---7------7---7--------|
|-------------------------|
|-------------------------|

|---------------------------------------------------------------------|
|---------------------------------------------------------------------|
|---------------------------------------------------------------------|
|4-4--x-4-----4-4--x-4-----6---7-7--x-7-----7-7--x-7------------------|
|4-4--x-4-----4-4--x-4-----6---7-7--x-7-----7-7--x-7------------------|
|2-2--x-2-----2-2--x-2-----4---5-5--x-5-----5-5--x-5------------------|

|---------------------------------------------------------------------|
|---------------------------------------------------------------------|
|---------------------------------------------------------------------|
|4-4--x-4-----4-4--x-4-----6---7-7--x-7-----9-9-9-9-9-9-9-------------|
|4-4--x-4-----4-4--x-4-----6---7-7--x-7-----9-9-9-9-9-9-9-------------|
|2-2--x-2-----2-2--x-2-----4---5-5--x-5-----7-7-7-7-7-7-7-------------|

|---------------------------------------------------------------------|
|---------------------------------------------------------------------|
|6-6--4--6-----6-6--4--6----------------------------------------------|  x2
|6-6--4--6-----6-6--4--6----7-----------------------------------------|
|4-4--2--4-----4-4--2--4----7-----------------------------------------|
|---------------------------5-----------------------------------------|

|---------------------------------------------------------------------|
|---------------------------------------------------------------------|
|999999999999999--666666666666666-------------------------------------|
|999999999999999--666666666666666--777777777777777--999999999999999---| Refrão
|777777777777777--444444444444444--777777777777777--999999999999999---|
|----------------------------------555555555555555--777777777777777---|

|-------------------------|--------------------------|
|-------------------------|-----5----------5---------|
|---6---4------6---4------|---6---6-4----6---6-4-----| x2
|-7---7------7---7--------|--------------------------|
|-------------------------|--------------------------|
|-------------------------|--------------------------|

|-------------------------|
|-------------------------|
|---6---4------6---4------|
|-7---7------7---7--------|
|-------------------------|
|-------------------------|

|---------------------------------------------------------------------|
|---------------------------------------------------------------------|
|---------------------------------------------------------------------|
|4-4--x-4-----4-4--x-4-----6---7-7--x-7-----7-7--x-7------------------|
|4-4--x-4-----4-4--x-4-----6---7-7--x-7-----7-7--x-7------------------|
|2-2--x-2-----2-2--x-2-----4---5-5--x-5-----5-5--x-5------------------|

|---------------------------------------------------------------------|
|---------------------------------------------------------------------|
|---------------------------------------------------------------------|
|4-4--x-4-----4-4--x-4-----6---7-7--x-7-----9-9-9-9-9-9-9-------------|
|4-4--x-4-----4-4--x-4-----6---7-7--x-7-----9-9-9-9-9-9-9-------------|
|2-2--x-2-----2-2--x-2-----4---5-5--x-5-----7-7-7-7-7-7-7-------------|

|---------------------------------------------------------------------|
|---------------------------------------------------------------------|
|999999999999999--666666666666666-------------------------------------|
|999999999999999--666666666666666--777777777777777--999999999999999---|
|777777777777777--444444444444444--777777777777777--999999999999999---|
|----------------------------------555555555555555--777777777777777---|

|---------------------------------------------------------------------|
|---------------------------------------------------------------------|
|999999999999999--666666666666666-------------------------------------|
|999999999999999--666666666666666--777777777777777--777777777777777---|
|777777777777777--444444444444444--777777777777777--777777777777777---|
|----------------------------------555555555555555--555555555555555---|

|---------------------------------------------------------------------|
|---------------------------------------------------------------------|
|6-6--4--6-----6-6--4--6----------------------------------------------|  x2
|6-6--4--6-----6-6--4--6----7-----------------------------------------|
|4-4--2--4-----4-4--2--4----7-----------------------------------------|
|---------------------------5-----------------------------------------|

|---------------------------------------------------------------------|
|---------------------------------------------------------------------|
|---------------------------------------------------------------------|
|4-4444444444444--6--7-7777777777-7-----------------------------------|
|4-4444444444444--6--7-7777777777-7-----------------------------------|
|2-2222222222222--4--5-5555555555-5-----------------------------------|
   xxxxxxxxxxxxx       xxxxxxxxxx

|---------------------------------------------------------------------|
|---------------------------------------------------------------------|
|999999999999999--666666666666666-------------------------------------|
|999999999999999--666666666666666--777777777777777777-7---------------|
|777777777777777--444444444444444--777777777777777777-7---------------|
|----------------------------------555555555555555555-5---------------|
 xxxxxxxxxxxxxxx  xxxxxxxxxxxxxxx  xxxxxxxxxxxxxxxxxx

|---------------------------------------------------------------------|
|---------------------------------------------------------------------|
|999999999999999--666666666666666-------------------------------------|
|999999999999999--666666666666666--777777777777777--999999999999999---|
|777777777777777--444444444444444--777777777777777--999999999999999---|
|----------------------------------555555555555555--777777777777777---|

|---------------------------------------------------------------------|
|---------------------------------------------------------------------|
|999999999999999--666666666666666-------------------------------------|
|999999999999999--666666666666666--777777777777777--777777777777777---|
|777777777777777--444444444444444--777777777777777--777777777777777---|
|----------------------------------555555555555555--555555555555555---|

|---------------------------------------------------------------------|
|---------------------------------------------------------------------|
|999999999999999--666666666666666-------------------------------------|
|999999999999999--666666666666666--777777777777777--999999999999999---|
|777777777777777--444444444444444--777777777777777--999999999999999---|
|----------------------------------555555555555555--777777777777777---|

|---------------------------------------------------------------------|
|---------------------------------------------------------------------|
|999999999999999--666666666666666-----------------------------------9-|
|999999999999999--666666666666666--777777777777777--777777777777777-9-|
|777777777777777--444444444444444--777777777777777--777777777777777-7-|
|----------------------------------555555555555555--555555555555555---|


Tab by Jonas
Tap to rate this tab
# A B C D E F G H I J K L M N O P Q R S T U V W X Y Z