Song name
# A B C D E F G H I J K L M N O P Q R S T U V W X Y Z

Glory Of This - The Fear That Gave Me Wings tab

-------------------------------------------------------------------------------
                  The Fear That Gave Me Wings - Glory Of This
-------------------------------------------------------------------------------
Tabbed by:Robbie
Email:robbie_plays_guitar@hotmail.co.uk

Tuning:Drop D

p.s this song is awesome.

Verse 1: Main Riff

Guitars 1 and 2 play this part.


"My eyes are shut for....."

e|--------------------------------------------------------|
B|--------------------------------------------------------|
G|--5--4--5--------5--4--5--------------------------------|
D|--x--x--x--------x--x--x---------X2---------------------|
A|--3--2--3--0-0---3--2--3--0-0-0------33333-55555--------|
D|-------------------------------------33333-55555--------|
             . .            . . .


e|------------------------------------------------------------------|
B|------------------------------------------------------------------|
G|----5--4--5-------5--4--5-----------------------------------------|
D|----x--x--x-------x--x--x---------X2-------------------555--------|
A|----3--2--3--0-0--3--2--3--0-0-0-----33333-55752-33333-333-555----|
D|-------------------------------------33333-55752-33333-----555----|
               . .           . . .


e|------------------------------------------------------------------|
B|------------------------------------------------------------------|
G|------------------------------------------------------------------|
D|-----------------------------555----------------------------------|
A|-33333-000000-000000--33333--333-57910----------------------------|
D|-33333-000000-000000--33333------57910----------------------------|
         ...... ......


Chorus:   00:27   Repeat the chorus twice.


Guitar One:
e|-------------------------------------------------------------------------|
B|-------------------------------------------------------------------------|
G|--------------------------------------12---------------------------------|
D|-12h14-12h14-12h14-12h14-12h14-12h14-----14-12--10h12-10h12-10h12-10h12--|
A|-------------------------------------------------------------------------|
D|-------------------------------------------------------------------------|


Guitar Two:

e|---------------------------------------------------------|
B|---------------------------------------------------------|
G|---------------------------------------------------------|
D|---------------------------------------------------------|
A|--10101010-10101010-10101010--101010--7777-7777-7777-777-|
D|--10101010-10101010-10101010--101010--7777-7777-7777-777-|


Guitar One:

e|----------------------------------------------------15----12-12-----|
B|----------------------------------------------13-12----12-----------|
G|-------------/12-----------------/12------/12-----------------------|
D|-10h12-10h12-----1210---9--10--------14~----------------------------|
A|--------------------------------------------------------------------|
D|--------------------------------------------------------------------|


Guitar Two:

e|---------------------------------------------------------|
B|---------------------------------------------------------|
G|---------------------------------------------------------|
D|---------------------------------------------------------|
A|-3333-3333-3333-333-0000-0000-3333-3333------------------|
D|-3333-3333-3333-333-0000-0000-3333-3333------------------|


Verse 2: 00:51

Guitars 1 and 2

e|--------------------------------------------------------|
B|--------------------------------------------------------|
G|--5--4--5--------5--4--5--------------------------------|
D|--x--x--x--------x--x--x---------X2---------------------|
A|--3--2--3--0-0---3--2--3--0-0-0------33333-55555--------|
D|-------------------------------------33333-55555--------|
             . .            . . .

 "I Can't waaaaaaiiiiiiiiiiiiiit!"

e|--------------------------------------------------------|
B|--------------------------------------------------------|
G|--5--4--5--------5--4--5--------------------------------|
D|--x--x--x--------x--x--x---------X2---------------------|
A|--3--2--3--0-0---3--2--3--0-0-0------33333-55-----------|
D|-------------------------------------33333-55--\/12-----|
             . .            . . .


Breakdown/Bridge:  1:08

Guitars 1 and 2.

e|-------------------------------------------|
B|---3---33----3---33----3---33--------------|
G|---3---33----3---33----3---33--------------|
D|-------------------------------33333-------|
A|-1----1----1----1----1----1----11111-33333-|
D|-1----1----1----1----1----1----------33333-|

e|-------------------------------------------|
B|---3---33----3---33----3---33--------------|
G|---3---33----3---33----3---33--------------|
D|-------------------------------33333-------|
A|-1----1----1----1----1----1----11111-353---|
D|-1----1----1----1----1----1----------353---|

Chorus: 1:20

Again, repeat it twice

Guitar One:
e|-------------------------------------------------------------------------|
B|-------------------------------------------------------------------------|
G|--------------------------------------12---------------------------------|
D|-12h14-12h14-12h14-12h14-12h14-12h14-----14-12--10h12-10h12-10h12-10h12--|
A|-------------------------------------------------------------------------|
D|-------------------------------------------------------------------------|


Guitar Two:

e|---------------------------------------------------------|
B|---------------------------------------------------------|
G|---------------------------------------------------------|
D|---------------------------------------------------------|
A|--10101010-10101010-10101010--101010--7777-7777-7777-777-|
D|--10101010-10101010-10101010--101010--7777-7777-7777-777-|


Guitar One:

e|----------------------------------------------------15----12-12-----|
B|----------------------------------------------13-12----12-----------|
G|-------------/12-----------------/12------/12-----------------------|
D|-10h12-10h12-----1210---9--10--------14~----------------------------|
A|--------------------------------------------------------------------|
D|--------------------------------------------------------------------|


Guitar Two:

e|---------------------------------------------------------|
B|---------------------------------------------------------|
G|---------------------------------------------------------|
D|---------------------------------------------------------|
A|-3333-3333-3333-333-0000-0000-3333-3333------------------|
D|-3333-3333-3333-333-0000-0000-3333-3333------------------|


Bridge: 1:44

Guitar 1 Lets this ring out.

e|---------------------------------------------------------|
B|---------------------------------------------------------|
G|--5~-----------------------------------------------------|
D|--5~-----------------------------------------------------|
A|--3~-----------------------------------------------------|
D|---------------------------------------------------------|

1:49

Play each chord roughly 12 times each
apart from the last 2 which are played 7 times.

The ghost notes are slightly heard.

Guitar 2 comes in with.
e|---------(0)------------------------------------------|
B|---------(0)------------------------------------------|
G|--7-------4------5------------5-----------------------|
D|--5-------2------5-----(0)----5---X3------------------|
A|--3-------0------3------0-----3-----------------------|
D|-----------------3------0-----3-----------------------|


Beatdown/
Breakdown/
Crazy part:  2:24

"WHY IM HERE!"

Guitars 1 and 2

e|---------------------------------------------------------------------|
B|------333------333-----------------------333------333----------------|
G|------333------333-----------------------333------333----------------|
D|--------------------555555-555555----------------------555555-555555-|
A|-11111111-11111111--555555-555555---11111111-11111111--555555-555555-|
D|-11111111-11111111--555555-555555---11111111-11111111--555555-555555-|


Beatdown Split:   2:36

Guitar One:

Strum the last octave like hell before the crazy part.

e|-----------------------------------------------------|
B|-----------------------------------------------------|
G|--5--7--14-14/--10-10--5--7---14--14--10--10---------|
D|--x--x---x--x---x--x---x--x---x---x---x---x---X2-----|
A|--3--5--12-12/--8--8---3--5---12--12--8---8----------|
D|-----------------------------------------------------|


Guitar Two:


e|---------------------------------------------------------------------|
B|------333------333-----------------------333------333----------------|
G|------333------333-----------------------333------333----------------|
D|--------------------555555-555555----------------------555555-555555-|
A|-11111111-11111111--555555-555555---11111111-11111111--555555-555555-|
D|-11111111-11111111--555555-555555---11111111-11111111--555555-555555-|

Outro:  2:47

Guitar One and Two.

e|-------------------------------------------------------------------------|
B|-------------------------------------------------------------------------|
G|-------------------------------------------------------------------------|
D|--------------------5555-555-5555-555---------------------5555-555-5555--|
A|-1111-111-1111-111--5555-555-5555-555--1111-111-1111-111--5555-555-5555--|
D|-1111-111-1111-111--5555-555-5555-555--1111-111-1111-111--5555-555-5555--|


Guitar Two only plays the bar chords in this part.

e|-----------------------------------------------------|
B|-----------------------------------------------------|
G|-----14-10-12/-----14-10-12--------------------------|
D|-----x--x--x-------x--x--x--------5------5-----------|
A|-11--12-8--10/-11--12-8--10--555555-555555-----------|
D|-11------------11------------555555-555555-----------|
                                   .      .
e|-----------------------------------------------------|
B|------------------------------------------3----------|
G|-----14-10-12/-----14-10-12---------------3----------|
D|-----x--x--x-------x--x--x--------5-5-5---1----------|
A|-11--12-8--10/-11--12-8--10--5555555555---1----------|
D|-11------------11------------5555555555---1----------|
                                   . . .

and let the last chord ring.=]


Lyrics:
Glory Of This-The Fear That Gave Me Wings
Adoration


My eyes are shut for now it seems the only way that I can cope.
A glittering example of what we've become.
So grab yourself by the wrist and think about this twice
One mistake could be the last action that you make.
Now I'm on my knees, I can feel my spirit leaving me.

I chose to promise myself that I'd never let you down.
To capture this moment would be the best idea yet.

Cowering in the dark. This room is now my friend.
I'll stay here and wait it out until the pressure ends.
I can't wait!!! Everything around me is a test to see I can last.
I don't know if I can. Where's my strength at?
I made a promise to myself that I�d always be around.
I should capture this moment, before I let you down.

I'm sure that I'll be heard,
I've got too much to lose to fly away and leave all of this behind.
So capture this moment, before I forget why I'm here.

I'm killing the only person in life I thought I knew.
The only person left to blame for this is you!
I've got things to say that I know you want to hear.
I can see through you perfectly clear.

Don't go too far. I chose to stay here. Remind me where we are.
Tap to rate this tab
# A B C D E F G H I J K L M N O P Q R S T U V W X Y Z