Song name
# A B C D E F G H I J K L M N O P Q R S T U V W X Y Z

Glory Revealed - To The Only God tab

Hey guys, hopefully this is about right with the one Shane Bernard plays at NewSong
Cafe. I'm not sure if this is the same way David Crowder plays it with Shane and Shane, though.
Here's the link; he plays it beginning around 6:19.
http://www.youtube.com/watch?v=NiDpTf-bbXA
The song is the same throughout so it's not too hard.
Hope you guys enjoy it!

*This song is really loose so pick as you want but the general pattern is 1-3-2-4-3-2-3
(except when you play the E: pick a little longer)
Tuning: Standard (EADGBe)

Intro:
     (A2)           (A2/G#)        (F#m)
e|------------------------------------------------------------------|
B|----------2--------------2--------------2--------------2----------|
G|--------2------------2------2---2---2------2---2---2------2---2---|
D|------0----------------0------0-------0------0-------0------0-----|
A|----0-------------------------------------------------------------|
E|-------------------4--------------2--------------2----------------|

     (D2)          (D/C#)         (Bm)           (E)                (A2)
e|--------0--------------0--------------0--------------------0------------------------||
B|----3------3---3---3------3---3---3------3---3-------0-------0-----------2----------||
G|------2------2-------2------2-------2------2-----1-----1-------1-----2------2---2---||
D|---0-------------------------------------------2---2-----2-------------0------0-----||
A|-----------------4--------------2----------------------------------0----------------||
E|-----------------------------------------------0------------------------------------||
                                                                     To    the

Verse:
     (A2)           (A2/G#)        (F#m)         (D2)
e|-----------------------------------------------------0--------|
B|---------2--------------2--------------2---------3------3---3-|
G|-----2------2---2---2------2---2---2------2---2----2------2---|
D|-------0------0-------0------0-------0------0---0-------------|
A|--------------------------------------------------------------|
E|---4--------------2--------------2----------------------------|
     only           God                     who is able       to

  (D/C#)         (Bm)           (E)
e|-------0--------------0--------------------0-------||
B|---3------3---3---3------3---3-------0-------0-----||
G|-----2------2-------2------2-----1-----1-------1---||
D|-------------------------------2---2-----2---------||
A|-4--------------2----------------------------------||
E|-------------------------------0-------------------||
   keep us        able        to keep us from falling


Verse Ending:
    (A2/G#)        (F#m)                          (D2)
e|-----------------------------------------------------0--------|
B|---------2--------------2--------------2---------3------3---3-|
G|-----2------2---2---2------2---2---2------2---2----2------2---|
D|-------0------0-------0------0-------0------0---0-------------|
A|--------------------------------------------------------------|
E|---4--------------2--------------2----------------------------|
     only           God                     be all glory       and

  (D/C#)         (Bm)           (E)
e|-------0--------------0--------------------0-------||
B|---3------3---3---3------3---3-------0-------0-----||
G|-----2------2-------2------2-----1-----1-------1---||
D|-------------------------------2---2-----2---------||
A|-4--------------2----------------------------------||
E|-------------------------------0-------------------||
   honor          majesty  and   power

    (Bm)           (E)               (A2)
e|---------0--------------------0--------------------||
B|-----3------3---3-------0-------0---------2--------||
G|-------2------2-----1-----1-------1---2------2---2-||
D|------------------2---2-----2-----------0------0---||
A|---2--------------------------------0--------------||
E|------------------0--------------------------------||
     For all ages   now   and forevermore

God bless!
Tap to rate this tab
 
# A B C D E F G H I J K L M N O P Q R S T U V W X Y Z