Song name
# A B C D E F G H I J K L M N O P Q R S T U V W X Y Z

Gluecifer - Little Man tab

Gluecifer Ė Little Man 

2x
E|-----------------------------------------------------------|
H|--3-----4-----3-----4-3-------------1----------------------|
G|0---3-0---3-0---3-0-----3-0-----3-0---3-----3-----3--------|
D|------------------------------1---------3-----3-0---3-0-3--|
A|----------------------------3-------------1----------------|
E|-----------------------------------------------------------|

2x                          
E|-----------------------------------------------------------|
H|--3-----4-----3-----4-3-------------1----------------------|
G|0---3-0---3-0---3-0-----3-0-----3-0---3-----3-----3--------|
D|------------------------------1---------3-----3-0---3-0-3--|
A|----------------------------3-------------1----------------|
E|-----------------------------------------------------------|
                 
Little Man, youíre very small                  
             
                     
E|--3---1-----------------------3---1------------------------|
H|----3---4-3-1-------------------3---4-3-1------------------|
G|0---------------------------0------------------------------|
D|-----------------------------------------------------------|
A|-----------------------------------------------------------|
E|-----------------------------------------------------------|

No oneís gonna hear your call


E|--3---1-----------------------3---1------------------------|
H|----3---4-3-1-------------------3---3----------------------|
G|0---------------------------0------------------------------|
D|-----------------------------------------------------------|
A|-----------------------------------------------------------|
E|-----------------------------------------------------------|

No oneís gonna hear your call

2x
E|-----------------------------------------------------------|
H|--3-----4-----3-----4-3-------------1----------------------|
G|0---3-0---3-0---3-0-----3-0-----3-0---3-----3-----3--------|
D|------------------------------1---------3-----3-0---3-0-3--|
A|----------------------------3-------------1----------------|
E|-----------------------------------------------------------|

Little Man, your eyes are red



2x
E|-----------------------------------------------------------|
H|--3-----4-----3-----4-3-------------1----------------------|
G|0---3-0---3-0---3-0-----3-0-----3-0---3-----3-----3--------|
D|------------------------------1---------3-----3-0---3-0-3--|
A|----------------------------3-------------1----------------|
E|-----------------------------------------------------------|

Whishing you were cold and dead


E|--3---1-----------------------3---1------------------------|
H|----3---4-3-1-------------------3---4-3-1------------------|
G|0---------------------------0------------------------------|
D|-----------------------------------------------------------|
A|-----------------------------------------------------------|
E|-----------------------------------------------------------|


E|--3---1-----------------------3---1------------------------|
H|----3---4-3-1-------------------3---3----------------------|
G|0---------------------------0------------------------------|
D|-----------------------------------------------------------|
A|-----------------------------------------------------------|
E|-----------------------------------------------------------|

2x
E|-----------------------------------------------------------|
H|--3-----4-----3-----4-3-------------1----------------------|
G|0---3-0---3-0---3-0-----3-0-----3-0---3-----3-----3--------|
D|------------------------------1---------3-----3-0---3-0-3--|
A|----------------------------3-------------1----------------|
E|-----------------------------------------------------------|

No oneís gonna play your game


2x
E|-----------------------------------------------------------|
H|--3-----4-----3-----4-3-------------1----------------------|
G|0---3-0---3-0---3-0-----3-0-----3-0---3-----3-----3--------|
D|------------------------------1---------3-----3-0---3-0-3--|
A|----------------------------3-------------1----------------|
E|-----------------------------------------------------------|

Nothing changes, itís the same






4x
E|-----------------------------------------------------------|
H|3-4-3--3-4-3-1---------------------------------------------|
G|-----------------------------------------------------------|
D|-----------------------------------------------------------|
A|-----------------------------------------------------------|
E|-----------------------------------------------------------|


E|-----------------------------------------------------------|
H|3-4-3--3-4-3-1---------------------------------------------|
G|-----------------------------------------------------------|
D|-----------------------------------------------------------|
A|-----------------------------------------------------------|
E|-----------------------------------------------------------|

Little Man youíre very small


E|-----------------------------------------------------------|
H|3-4-3--3-4-3-1---------------------------------------------|
G|-----------------------------------------------------------|
D|-----------------------------------------------------------|
A|-----------------------------------------------------------|
E|-----------------------------------------------------------|

No oneís gonna hear your call


E|-----------------------------------------------------------|
H|3-4-3--3-4-3-1---------------------------------------------|
G|-----------------------------------------------------------|
D|-----------------------------------------------------------|
A|-----------------------------------------------------------|
E|-----------------------------------------------------------|

Looking through those eyes so read


E|-----------------------------------------------------------|
H|3-4-3--3-4-3-1---------------------------------------------|
G|-----------------------------------------------------------|
D|-----------------------------------------------------------|
A|-----------------------------------------------------------|
E|-----------------------------------------------------------|

Wishing you were cold and dead





2x
E|-----------------------------------------------------------|
H|3-4-3--3-4-3-1---------------------------------------------|
G|-----------------------------------------------------------|
D|-----------------------------------------------------------|
A|-----------------------------------------------------------|
E|-----------------------------------------------------------|

No oneís gonna play the game

2x
E|-----------------------------------------------------------|
H|3-4-3--3-4-3-1---------------------------------------------|
G|-----------------------------------------------------------|
D|-----------------------------------------------------------|
A|-----------------------------------------------------------|
E|-----------------------------------------------------------|

Nothing changes itís the same

  --END--

Thank you guys for taking my tabs of `Gluecifer - Little Manī ;-)
Tap to rate this tab
# A B C D E F G H I J K L M N O P Q R S T U V W X Y Z