Guitaretab - guitar tabs
Song name
# A B C D E F G H I J K L M N O P Q R S T U V W X Y Z

Glukoza - Schwiene tab

Note, these are the only tabs on the internet as far as I know, I guessed how to play. 
you know the correct tabs, please contact me.
I only know the main bit, but I'm working on the chorus. Timings are Inaccurate.

This is my first tabulation, hope this helps you!

Intro:
|----------------------------------------------------------|
|----------------------------------------------------------|
|----------------------------------------------------------|
|----------------------------------------------------------|
|7--0--7--0--7--0--7--0--7--0--7--------7--0--7--0--7--0--7|
|5--0--5--0--5--0--5--0--5--0--5--------5--0--5--0--5--0--5|
x1                             (snort snort)

Note: This Is only played once or twice throughout the whole song whilst you        hear snorting.

Main:
|--------------------------------------------------------------------|
|--------------------------------------------------------------------|
|--------------------------------------------------------------------|
|------------------------------------7-----7-----9-----9-----9-7-5-4-|
|7--0--7--0--7--0--7--0--7--0--7--0--5--7--5--7--7--9--7--9--7-5-3-2-|
|5--0--5--0--5--0--5--0--5--0--5--0-----5-----5-----7-----7----------|
x2 or more.
[ Tab from: http://www.guitaretab.com/g/glukoza/175505.html ]
Note: Straight after the downwards bit at the end, go straight to the start   again.

Pre-chorus/interval
|-----------------------|
|-----------------------|
|-----------------------|
|5---7---2----4---7---1-|
|3---5---4----2---5---2-|
|-----------------------|
x1

Note: This interval is played hard/deeply.

Chorus:
|------------|
|------------|
|------------|
|---5--7--9-9|
|7--3--5--7-7|
|5-----------|
x3 (x9, but there is intervals)

After interval 2, play this again and return to interval 2. Play this 4 times altogether.

Interval 2
|--------------|
|--------------|
|--------------|
|10--7--9-7-5-4|
| 8--5--7-5-3-2|
|--------------|

Note: Play once every twice the chorus is played.

Main:
|--------------------------------------------------------------------|
|--------------------------------------------------------------------|
|--------------------------------------------------------------------|
|------------------------------------7-----7-----9-----9-----9-7-5-4-|
|7--0--7--0--7--0--7--0--7--0--7--0--5--7--5--7--7--9--7--9--7-5-3-2-|
|5--0--5--0--5--0--5--0--5--0--5--0-----5-----5-----7-----7----------|
x2 or more.

Tips: On the main part, palm mute it after each strum, to mute the sound.
      Remember, most notes are around the 5-7 frets.

http://www.glukoza.ru/
Related for Schwiene tab
Advertisement will be closed in 10 seconds