Song name
# A B C D E F G H I J K L M N O P Q R S T U V W X Y Z

Gnarkill - Golden Egg tab

This Probably Isn't The Actual Guitar Part Played In The Song But It Sounds Really Good. 
Max Gain And All The Friggin Distortion You Have for playing this song.

Main Riff
e|---------------------|
B|---------------------|
G|---------------------|
D|------4----4---4---55|
A|--222-2-22-2-2-2-2-33|
E|--000---00---0---0---|

2nd Riff
e|----------------------------------------------|
B|----------------------------------------------|
G|----------------------------------------------|
D|-------------------------5x-5x-5x-5x-5x-5x-5/4|
A|--2x-2x-2x-2x-2x-2x-2-2--3x-3x-3x-3x-3x-3x-3/2|
E|--0x-0x-0x-0x-0x-0x-0h3-----------------------|

End (Brrapapapabrripapapapoa yeah now now you want to wear my turban and bang your hole)
e|----------------------|
B|----------------------|
G|----------------------|
D|------4-------5--4----|
A|--2---2---2---3--2--2x|
E|--0-------0---------0x|

Tabbed By The Opiumwalrus
Visit my website http://www.opiumwalrus.webs.com/
Tap to rate this tab
# A B C D E F G H I J K L M N O P Q R S T U V W X Y Z