Song name
# A B C D E F G H I J K L M N O P Q R S T U V W X Y Z

Gnarles Barkley - Whos Gonna Save My Soul tab

For most of the song the main riff is this

e|---------------------------------------------------------------------------|
B|---------------------------------------------------------------------------|
G|---------------------------------------------------------------------------|
D|---------------------------------------------------------------------------|
A|--10h12-10---------------8--8-8-8-----12p11p10-10---------------8-8-8-8----|
E|-----------10-10-7h8-10---------------------------10-10--7p8-10------------|

The riff changes around the chours
e|---------------------------------------------------------------------------|
B|---------------------------------------------------------------------------|
G|---------------------------------------------------------------------------|
D|--10/12--------------------------------------------------------------------|
A|---------10--7h8h10--------------------------------------------------------|
E|---------------------7h8h10------------------------------------------------|
Tap to rate this tab
 
# A B C D E F G H I J K L M N O P Q R S T U V W X Y Z