Song name
# A B C D E F G H I J K L M N O P Q R S T U V W X Y Z

Gnarls Barkley - Gone Daddy Gone tab

-------------------------------------------------------------------------------
			     SONG NAME - Gone Daddy Gone
-------------------------------------------------------------------------------
Tabbed by:BigDean
Email:

Tuning:eadgbe

im sure this is right but ull have to listen to the track for the timing

play this 
e|---------------------------------------------------------------------|
B|---------------------------------------------------------------------|
G|---7-7--5-5--4-4--3-3-33-3-------------------------------------------|
D|---x-x--x-x--x-x--x-x-xx-x-------------------------------------------|
A|---5-5--3-3--2-2--1-1-11-1-------------------------------------------|
E|---------------------------------------------------------------------|

then this
e|---------------------------------------------------------------------|
B|-3333333-666-8-88----------------------------------------------------|
G|---------------------------------------------------------------------|
D|---------------------------------------------------------------------|
A|---------------------------------------------------------------------|
E|---------------------------------------------------------------------|x4

then the chorus
e|---------------------------------------------------------------------|
B|---------------------------------------------------------------------|
G|---7-7--5-5--4-4--3-3-33-3-------------------------------------------|
D|---7-7--5-5--4-4--3-3-33-3-------------------------------------------|
A|---5-5--3-3--2-2--1-1-11-1-------------------------------------------|
E|---------------------------------------------------------------------|x4

then back to the verse
pm--------------------------
e|---------------------------------------------------------------------|
B|---------------------------------------------------------------------|
G|---7-7--5-5--4-4--3-3-33-3-------------------------------------------|
D|---x-x--x-x--x-x--x-x-xx-x-------------------------------------------|
A|---5-5--3-3--2-2--1-1-11-1-------------------------------------------|
E|---------------------------------------------------------------------|x2

then
e|---------------------------------------------------------------------|
B|---------------------------------------------------------------------|
G|---7-7--5-5--4-4--3-3-33-3-------------------------------------------|
D|---x-x--x-x--x-x--x-x-xx-x-------------------------------------------|
A|---5-5--3-3--2-2--1-1-11-1-------------------------------------------|
E|---------------------------------------------------------------------|

e|---------------------------------------------------------------------|
B|-3333333-666-8-88----------------------------------------------------|
G|---------------------------------------------------------------------|
D|---------------------------------------------------------------------|
A|---------------------------------------------------------------------|
E|---------------------------------------------------------------------|x2

then back to the chorus
e|---------------------------------------------------------------------|
B|---------------------------------------------------------------------|
G|---7-7--5-5--4-4--3-3-33-3-------------------------------------------|
D|---7-7--5-5--4-4--3-3-33-3-------------------------------------------|
A|---5-5--3-3--2-2--1-1-11-1-------------------------------------------|
E|---------------------------------------------------------------------|x4

then a drum and bass solo
e|---------------------------------------------------------------------|
B|---------------------------------------------------------------------|
G|---------------------------------------------------------------------|
D|---------------------------------------------------------------------|
A|---5-5--3-3--2-2--1-1-11-1-------------------------------------------|
E|---------------------------------------------------------------------|x3

then

e|---------------------------------------------------------------------|
B|---------------------------------------------------------------------|
G|---7-7--5-5--4-4--3-3-33-3-------------------------------------------|
D|---x-x--x-x--x-x--x-x-xx-x-------------------------------------------|
A|---5-5--3-3--2-2--1-1-11-1-------------------------------------------|
E|---------------------------------------------------------------------|

e|---------------------------------------------------------------------|
B|-3333333-666-8-88----------------------------------------------------|
G|---------------------------------------------------------------------|
D|---------------------------------------------------------------------|
A|---------------------------------------------------------------------|
E|---------------------------------------------------------------------|

then the chorus again
e|---------------------------------------------------------------------|
B|---------------------------------------------------------------------|
G|---7-7--5-5--4-4--3-3-33-3-------------------------------------------|
D|---7-7--5-5--4-4--3-3-33-3-------------------------------------------|
A|---5-5--3-3--2-2--1-1-11-1-------------------------------------------|
E|---------------------------------------------------------------------|x4

then verse again
e|---------------------------------------------------------------------|
B|---------------------------------------------------------------------|
G|---7-7--5-5--4-4--3-3-33-3-------------------------------------------|
D|---x-x--x-x--x-x--x-x-xx-x-------------------------------------------|
A|---5-5--3-3--2-2--1-1-11-1-------------------------------------------|
E|---------------------------------------------------------------------|

e|---------------------------------------------------------------------|
B|-3333333-666-8-88----------------------------------------------------|
G|---------------------------------------------------------------------|
D|---------------------------------------------------------------------|
A|---------------------------------------------------------------------|
E|---------------------------------------------------------------------|x2

then back to the chorus
e|---------------------------------------------------------------------|
B|---------------------------------------------------------------------|
G|---7-7--5-5--4-4--3-3-33-3-------------------------------------------|
D|---7-7--5-5--4-4--3-3-33-3-------------------------------------------|
A|---5-5--3-3--2-2--1-1-11-1-------------------------------------------|
E|---------------------------------------------------------------------|x4

then a bass solo to finish it
e|---------------------------------------------------------------------|
B|---------------------------------------------------------------------|
G|---------------------------------------------------------------------|
D|---------------------------------------------------------------------|
A|---5-5--3-3--2-2--1-1-11-1-------------------------------------------|
E|---------------------------------------------------------------------|x8
Tap to rate this tab
# A B C D E F G H I J K L M N O P Q R S T U V W X Y Z