Song name
# A B C D E F G H I J K L M N O P Q R S T U V W X Y Z

Gnarwolves - Oh Brave New World tab

This is a tab based on the way I worked it out to play on a youtube acoustic 
cover, It's probably not how the CRU play it but people have been getting at me to 
make a tab for a while so this is it.

[YT: /watch?v=KFMMuZ8Im48&feature=share&list=UUuY0UCYYUPYfAiObuN1hxTw]

My tuning was in drop C but a capo on 2 [so basically drop D]. 

Intro/Verse:

 Every single story told, Is a record of war...
I will patronise with hope, Scratch slogans on your wall...

 |0------------------0------------------0------------------0------------------|
 |0------------------0------------------0------------------0------------------|
 |5------------------4------------------2------------------2------------------|
 |5------------------5------------------2------------------3------------------|
 |3------------------5------------------0------------------3------------------|
 |X------------------5------------------X------------------3------------------|

(Repeat using appropriate strumming patterns throughout the verse sections)


''We're never sore...                                         We're never sore...

|X------------------X------------------X------------------X------------------
|0--0--00-0--0--00-0--0--00-0--0--00-0--0--00-0--0--00-0--0--00-0--0--00--
|5--5--55-4--4--44-7--7--77-4--4--44-5--5--55-4--4--44-7--7--77-4--4--44--
|5--5--55-5--5--55-5--5--55-5--5--55-3--3--33-3--3--33-3--3--33-3--3--33--
|3--3--33-3--3--33-3--3--33-3--3--33-3--3--33-3--3--33-3--3--33-3--3--33--
|X------------------------------------ 3--3--33-3--3--33-3--3--33-3--3--33--

'So always know...''

|X------------------X-----------------X----------------X-----------------------
|0--0--00-0--0--00-3--3--33-5--5--55-3--3--33-3--3--33-3--3--33-------------
|5--5--55-4--4--44-4--4--44-4--4--44-2--2--22-2--2--22-2--2--22-------------
|2--2--22-2--2--22-2--2--22-2--2--22-0--0--00-0--0--00-0--0--00---2-3--2-3--
|2--2--22-2--2--22-2--2--22-2--2--22-0--0--00-0--0--00-0--0--00---2-3--2-3--
|2--2--22-2--2--22-2--2--22-2--2--22-0--0--00-0--0--00-0--0--00---2-3--2-3--



CHORUS:
(Use appropriate strumming pattern)

   I've got control             I've got control         of my little life     I'm comfortable..(etc)
 |0------------------0------------------0------------------0------------------|
 |0------------------0------------------0------------------0------------------|
 |5------------------4------------------2------------------2------------------|
 |5------------------5------------------3------------------3------------------|
 |3------------------5------------------3------------------3------------------|
 |X------------------5------------------3------------------3------------------| X2


|-------------------|-------------------|
|0--000-00--000-00-|0--000-00--000-00-|
|1--111-22--111-22-|1--111-22--111-44-|
|2--222-33--222-33-|2--222-33--222-55-|
|2--222-33--222-33-|2--222-33--222-55-|
|X--XXX-33--XXX-33-|X--XXX-33--XXX-55-|

[VERSE]
[CHORUS]


OUTRO:
                                   The ending fits into the start
|------------------|-------------------|
|0--000-00--000-00-|3--------0--0------|
|1--111-22--111-22-|2--------7--7------|
|2--222-33--222-33-|0--------5--6------|
|2--222-33--222-33-|0--------5--5------|
|X--XXX-33--XXX-33-|0--------5--6------| X3 ?



Sorry it took so long (the strumming patterns are probably wrong but easy enough 
to work out) Hope this helps you lot. Gnarwolves CRU fuck you. Peace.
Tap to rate this tab
# A B C D E F G H I J K L M N O P Q R S T U V W X Y Z