Gnr - The Godfather tab

E||--------------------------------|---------------------|------------------------------|
B||--------------------------------|---------------------|------------------------------|
G||------------12-11-12-13-12-12---|-12-11-12-13-12-12---|-12-11-12--15--12-11-14-12----|
D||------------------------------12|-------------------12|------------------------------|
A||--------------------------------|---------------------|------------------------------|
E||--------------------------------|---------------------|------------------------------|


E||----------9--12-11-9--12--9-11-9|----------|9--12-11-9--12--9-11-9|------------------|
B||--------9-----------------------|-10-12---9|----------------------|-8-7-6------------|
G||--------------------------------|----------|----------------------|------------------|
D||--------------------------------|----------|----------------------|------------------|
E||--------------------------------|----------|----------------------|------------------|
Tap to rate this tab
 
# A B C D E F G H I J K L M N O P Q R S T U V W X Y Z