Song name
# A B C D E F G H I J K L M N O P Q R S T U V W X Y Z

Go Audio - Made Up Stories tab

=========================================================================
                      Made Up Stories - Go:Audio
=========================================================================

Tabber: Pyrest
E-mail: pyrest-tk@hotmail.co.uk
Band Website: http://www.goaudioband.com/
Tuning: Standard (EADGBe)

Pretty much just power chords. Its fun to play, and the leads are on keyboard.
Rate && Comment please.

I belive the tempo is around the 160bpm mark... but I'm not 100% sure.
Use the spacing as a guide to when to hit the notes.

Verse

e||-----------------|-----------------|-----------------|-----------------|
B||o----------------|-----------------|-----------------|-----------------|
G||-----------------|-----------------|-----------------|-----------------|
D||-7-7-7-7-7-7-7-7-|-7-7-7-7-7-7-7-7-|-----------------|-----------------|
A||o5-5-5-5-5-5-5-5-|-5-5-5-5-5-5-5-5-|-9-9-9-9-9-9-9-9-|-9-9-9-9-9-9-9-9-|
E||-----------------|-----------------|-7-7-7-7-7-7-7-7-|-7-7-7-7-7-7-7-7-|
  P.M...................................................................
                                                                         x2
e|-----------------|-----------------|-----------------|-----------------||
B|-----------------|-----------------|-----------------|----------------o||
G|-----------------|-----------------|-----------------|-----------------||
D|-----------------|-----------------|-7-7-7-7-7-7-7-7-|-----------------||
A|-5-5-5-5-5-5-5-5-|-5-5-5-5-5-5-5-5-|-5-5-5-5-5-5-5-5-|-7-7-7-7-7-7-7-7o||
E|-3-3-3-3-3-3-3-3-|-3-3-3-3-3-3-3-3-|-----------------|-5-5-5-5-5-5-5-5-||
  P.M...................................................................


Chorus

e|-----------------|-----------------|-----------------|-----------------|
B|-----------------|-----------------|-----------------|-----------------|
G|-----------------|-----------------|-----------------|-----------------|
D|-----------------|-----------------|-----------------|-----------------|
A|-5-5-------------|-7-7-------------|-9-9-------------|-9-9-------7-----|
E|-3-3-------------|-5-5-------------|-7-7-------------|-7-7-------5-----|
  
                                                                         
e|-----------------|-----------------|-----------------|-----------------|
B|-----------------|-----------------|-----------------|-----------------|
G|-----------------|-----------------|-7-7-7-7-7-7-7-7-|-7-7-7-7-7-7-7-7-|
D|-----------------|-----------------|-7-7-7-7-7-7-7-7-|-7-7-7-7-7-7-7-7-|
A|-5-5-------------|-7-7-------x\----|-5-5-5-5-5-5-5-5-|-5-5-5-5-5-5-5-5-|
E|-3-3-------------|-5-5-------x\----|-----------------|-----------------|


e|-----------------|-----------------|-----------------|-----------------|
B|-----------------|-----------------|-----------------|-----------------|
G|-----------------|-----------------|-----------------|-----------------|
D|-----------------|-----------------|-----------------|-----------------|
A|-5-5-5-5-5-5-5-5-|-7-7-7-7-7-7-7-7-|-9-9-9-9-9-9-9-9-|-9-9-9-9-9-9-9-9-|
E|-3-3-3-3-3-3-3-3-|-5-5-5-5-5-5-5-5-|-7-7-7-7-7-7-7-7-|-7-7-7-7-7-7-7-7-|
  
                                                                         
e|-----------------|-----------------|-----------------|-----------------|
B|-----------------|-----------------|-----------------|-----------------|
G|-----------------|-----------------|-7-7-7-7-7-7-7-7-|-7-7-7-7-7-7-7-7-|
D|-----------------|-----------------|-7-7-7-7-7-7-7-7-|-7-7-7-7-7-7-7-7-|
A|-5-5-5-5-5-5-5-5-|-7-7-7-7-7-7-7-7-|-5-5-5-5-5-5-5-5-|-5-5-5-5-5-5-5-5-|
E|-3-3-3-3-3-3-3-3-|-5-5-5-5-5-5-5-5-|-----------------|-----------------|



Bridge:

e|-----------------|-----------------|-----------------|-----------------|
B|-----------------|-----------------|-----------------|-----------------|
G|-----------------|-----------------|-----------------|-----------------|
D|-----------------|-----------------|-----------------|-----------------|
A|-9-9-9-9-9-9-9-9-|-9-9-9-9-9-9-9-9-|-7-7-7-7-7-7-7-7-|-7-7-7-7-7-7-7-7-|
E|-7-7-7-7-7-7-7-7-|-7-7-7-7-7-7-7-7-|-5-5-5-5-5-5-5-5-|-5-5-5-5-5-5-5-5-|
  P.M...................................................................
                                                                         
e|-----------------|-----------------|-----------------|-----------------|
B|-----------------|-----------------|-----------------|-----------------|
G|-7-7-7-7-7-7-7-7-|-7-7-7-7-7-7-7-7-|-----------------|-----------------|
D|-7-7-7-7-7-7-7-7-|-7-7-7-7-7-7-7-7-|-5-5-5-5-5-5-5-5-|-7-7-7-7-7-7-7-7-|
A|-5-5-5-5-5-5-5-5-|-5-5-5-5-5-5-5-5-|-5-5-5-5-5-5-5-5-|-7-7-7-7-7-7-7-7-|
E|-----------------|-----------------|-3-3-3-3-3-3-3-3-|-5-5-5-5-5-5-5-5-|

e|-----------------|-----------------|-----------------|-----------------|
B|-----------------|-----------------|-----------------|-----------------|
G|-----------------|-----------------|-----------------|-----------------|
D|-----------------|-----------------|-----------------|-----------------|
A|-9-9-9-9-9-9-9-9-|-9-9-9-9-9-9-9-9-|-7-7-7-7-7-7-7-7-|-7-7-7-7-7-7-7-7-|
E|-7-7-7-7-7-7-7-7-|-7-7-7-7-7-7-7-7-|-5-5-5-5-5-5-5-5-|-5-5-5-5-5-5-5-5-|
  P.M...................................................................
                                                                         
e|-----------------|-----------------|-----------------|-----------------|
B|-----------------|-----------------|-----------------|-----------------|
G|-7-7-7-7-7-7-7-7-|-7-7-7-7-7-7-7-7-|-----------------|-----------------|  
D|-7-7-7-7-7-7-7-7-|-7-7-7-7-7-7-7-7-|-5-5-----x-x-x-x-|-7---------[7]~~-|  
A|-5-5-5-5-5-5-5-5-|-5-5-5-5-5-5-5-5-|-5-5-----x-x-x-x-|-7---------[7]~~-|  
E|-----------------|-----------------|-3-3-----x-x-x-x-|-5---------[5]~~-|  
                                                                   N.H 
                                                 I think it sounds better
                                                 With the harmonic.
Interlude:
{w/ less distortion}


e||-----------------|-----------------|-----------------|-----------------|
B||o----------------|-----------------|-----------------|-----------------|
G||-----------------|-----------------|-----------------|-----------------|
D||-----------------|-----------------|-----------------|-----------------|
A||o5-5-5-5-5-5-5-5-|-5-5-5-5-5-5-5-5-|-----------------|-----------------|
E||-----------------|-----------------|-3-3-3-3-3-3-3-3-|-3-3-3-3-3-3-3-3-|

                                                                         x2
e|-----------------|-----------------|-----------------|-----------------||
B|-----------------|-----------------|-----------------|----------------o||
G|-----------------|-----------------|-----------------|-----------------||
D|-----------------|-----------------|-----------------|-----------------||
A|-----------------|-----------------|-----------------|----------------o||
E|-7-7-7-7-7-7-7-7-|-7-7-7-7-7-7-7-7-|-5-5-5-5-5-5-5-5-|-5-5-5-5-5-5-5-5-||

End on:
{distorion back on}
e|------
B|------
G|------
D|-7----
A|-7----
E|-5----


Outro:
{w/ distortion}

e||-----------------|-----------------|-----------------|-----------------|
B||o----------------|-----------------|-----------------|-----------------|
G||-----------------|-----------------|-----------------|-----------------|
D||-7-7-7-7-7-7-7-7-|-7-7-7-7-7-7-7-7-|-----------------|-----------------|
A||o5-5-5-5-5-5-5-5-|-5-5-5-5-5-5-5-5-|-5-5-5-5-5-5-5-5-|-5-5-5-5-5-5-5-5-|
E||-----------------|-----------------|-3-3-3-3-3-3-3-3-|-3-3-3-3-3-3-3-3-|

                                                                         x3
e|-----------------|-----------------|-----------------|-----------------||
B|-----------------|-----------------|-----------------|----------------o||
G|-----------------|-----------------|-----------------|-----------------||
D|-----------------|-----------------|-----------------|-----------------||
A|-9-9-9-9-9-9-9-9-|-9-9-9-9-9-9-9-9-|-7-7-7-7-7-7-7-7-|-7-7-7-7-7-7-7-7o||
E|-7-7-7-7-7-7-7-7-|-7-7-7-7-7-7-7-7-|-5-5-5-5-5-5-5-5-|-5-5-5-5-5-5-5-5-||


End song on:

e|--------
B|--------
G|-7~~----
D|-7~~----
A|-5~~----
E|--------



In case you dont know, the song goes;

Verse
Chorus
Verse
Chorus
Bridge
Interlude
Outro
_________________
| /  slide up
| \  slide down
| h  hammer-on
| p  pull-off
| ~  let ring
| +  harmonic
| x  Mute note
Tap to rate this tab
 
# A B C D E F G H I J K L M N O P Q R S T U V W X Y Z