Song name
# A B C D E F G H I J K L M N O P Q R S T U V W X Y Z

Go Audio - She Left Me tab

She Left me- Go:audio

Hey guys this tab is by no means
perfect- it's rough around the edges
but it'll get you started =]
There's also a bit of the keyboard at the end

INTRO
I'm, staying in tonight
e|--------------------------------------------------------------------------|
B|--------------------------------------------------------------------------|
G|--------7---------7-------------------------------------------------------|
D|--7-2-4-7---7-2-4-7-------------------------------------------------------|
A|--7-2-4-5---7-2-4-5-------------------------------------------------------|
D|--7-2-4-----7-2-4---------------------------------------------------------|
  pm.....................

PRE CHORUS
It says that she's not
e|--------------------------------------------------------------------------|
B|--------------------------------------------------------------------------|
G|--7---------7---9---------------------------------------------------------|
D|--7-7-2-0---7-7-9---------------------------------------------------------|
A|--5-7-2-0---5-7-7---------------------------------------------------------|
D|----7-2-0-----7-----------------------------------------------------------|

CHORUS
I will say, she got herself
e|--------------------------------------------------------------------------|
B|--------------------------------------------------------------------------|
G|----7--------7--------------7---7-9---------------------------------------|
D|--4-7-7-2--4-7-7-2----7-2-4-7---7-9-7-------------------------------------|
A|--4-5-7-2--4-5-7-2----7-2-4-5---5-7-7-------------------------------------|
D|--4---7-2--4---7-2----7-2-4---------7-------------------------------------|
                     pm.........
Verse
she's enrolled in the marines
e|--------------------------------------------------------------------------|
B|--------------------------------------------------------------------------|
G|--------7-----------------------------------------------------------------|
D|--7-2-4-7-----------------------------------------------------------------|
A|--7-2-4-5-----------------------------------------------------------------|
D|--7-2-4-------------------------------------------------------------------|
  pm............

Prechorus
she says that she's not comming back
e|--------------------------------------------------------------------------|
B|--------------------------------------------------------------------------|
G|--7---------7-------------------------------------------------------------|
D|--7-7-2-0---7-7-2---------------------------------------------------------|
A|--5-7-2-0---5-7-2---------------------------------------------------------|
D|----7-2-0-----7-2---------------------------------------------------------|
  pm.............

CHORUS-
I will say, she got herself
e|--------------------------------------------------------------------------|
B|--------------------------------------------------------------------------|
G|----7--------7--------------9---7----9------------------------------------|
D|--4-7-7-2--4-7-7-2--------7-9-4-7--7-9-7----------------------------------|
A|--4-5-7-2--4-5-7-2--------7-7-4-5--7-7-7----------------------------------|
D|--4---7-2--4---7-2--------7---4----7---7----------------------------------|

Bridge
she says that she not comming back
e|----------------------------------------------------------------------------|
B|----------------------------------------------------------------------------|
G|---------NO-GUITAR----------------------------------------------------------|
D|----------------------------------7-----------------------------------------|
A|----------------------------------7-----If-you-want-------------------------|
D|----------------------------------7-----------------------------------------|

CHORUS
I will say, she got herself
e|--------------------------------------------------------------------------|
B|--------------------------------------------------------------------------|
G|----7--------7---------7--------7-----------------------------------------|
D|--4-7-7-2--4-7-7-2---4-7-7-2--4-7-7-2-------7-----------------------------|
A|--4-5-7-2--4-5-7-2---4-5-7-2--4-5-7-2-------7-end-------------------------|
D|--4---7-2--4---7-2---4---7-2--4---7-2-------7-----------------------------|

|---KEYBOARD---------------------------------------------------------------|

Intro/verse
4|-a--a---G--G----------------------------------------------------------------|
3|--a--a---a---a----------x-a-lot---------------------------------------------|

Pre chorus
|---------------------------------------------------------------------------|
|---------------------------------------------------------------------------|
|---------------------------------------------------------------------------|
|---a--e--b--a--------------------------------------------------------------|
|---F--C--G--F-------x-2----------------------------------------------------|
|---d--a--e--d--------------------------------------------------------------|
Tap to rate this tab
 
# A B C D E F G H I J K L M N O P Q R S T U V W X Y Z