Song name
# A B C D E F G H I J K L M N O P Q R S T U V W X Y Z

Go Audio - Brake Brake tab

=========================================================================
                            Brake Brake - Go:Audio
=========================================================================

Tabber: Pyrest
E-mail: pyrest-tk@hotmail.co.uk

Tuning: Standard (EADGBe)

Tab notes:
It may be in drop D, however, it's more fun to play/tab in standard tuning. 

I will re-tab it in drop D at some point.



Intro/Lead Riff:
                                        x5
e||------5-----5-----|-----5-----5------||
B||o-----------------|-----------------o||
G||--6-7---6-7---6-7-|-6-7---6-7---6-7--||
D||------------------|------------------||  
A||o-----------------|-----------------o||
E||------------------|------------------||



Note1: I find it easier to hammer on to the 7th fret after picking the 6th,
      then picking the 5th fret on the high E string. 
                **Refer to Note1 at the bottom of the tab.**


Intro/Rhythm:
                                                                         
e|-----------------|-----------------|-----------------|-----------------|
B|-----------------|-----------------|-----------------|-----------------|
G|-----------------|-----------------|-----------------|-----------------|
D|-7-7-7-----7-7-7-|-7-7-7-----7-7-7-|-----------------|-----------------|
A|-5-5-5-----5-5-5-|-5-5-5-----5-5-5-|-7-7-7-----7-7-7-|-7-7-7-----7-7-7-|
E|-----------------|-----------------|-5-5-5-----5-5-5-|-5-5-5-----5-5-5-|

e|-----------------|-----------------|-----------------|-----------------|
B|-----------------|-----------------|-----------------|-----------------|
G|-----------------|-----------------|-----------------|-----------------|
D|-----------------|-----------------|-----------------|-----------------|
A|-9-9-9-----9-9-9-|-9-9-9-----9-9-9-|-5-5-5-----5-5-5-|-5-5-5-----5-5-5-|
E|-7-7-7-----7-7-7-|-7-7-7-----7-7-7-|-3-3-3-----3-3-3-|-3-3-3-----3-3-3-|

Rhythm comes in after one repeat of the Lead riff. 



Verse:  

e||-----------------|-----------------|-----------------|-----------------|
B||-----------------|-----------------|-----------------|-----------------|
G||-----------------|-----------------|-----------------|-----------------|
D||-7-7-7-----7-7-7-|-7-7-7-----7-7-7-|-----------------|-----------------|
A||-5-5-5-----5-5-5-|-5-5-5-----5-5-5-|-7-7-7-----7-7-7-|-7-7-7-----7-7-7-|
E||-----------------|-----------------|-5-5-5-----5-5-5-|-5-5-5-----5-5-5-|

                                                                          x2
e|-----------------|-----------------|-----------------|------------------||
B|-----------------|-----------------|-----------------|-----------------o||
G|-----------------|-----------------|-----------------|------------------||
D|-----------------|-----------------|-----------------|------------------||
A|-9-9-9-----9-9-9-|-9-9-9-----9-9-9-|-5-5-5-----5-5-5-|-5-5-5-----5-5-5-o||
E|-7-7-7-----7-7-7-|-7-7-7-----7-7-7-|-3-3-3-----3-3-3-|-3-3-3-----3-3-3--||

Note2: The verses are all palm muted.

Note3: On the second repeat, the Intro/Lead Riff theme plays again 4 times through.



Pre-Chorus

e|-----------------|-----------------|-----------------|-----------------|
B|-----------------|-----------------|-----------------|-----------------|
G|-----------------|-----------------|-----------------|-----------------|
D|-----------------|-----------------|-----------------|-----------------|
A|-5-5-5-5-5-5-5-5-|-7-7-7-7-7-7-7-7-|-9-9-9-9-9-9-9-9-|-9-9-9-9-9-9-9-9-|
E|-3-3-3-3-3-3-3-3-|-5-5-5-5-5-5-5-5-|-7-7-7-7-7-7-7-7-|-7-7-7-7-7-7-7-7-|
  P.M...................................................................
                                                                         
e|-----------------|-----------------|-----------------|-----------------|
B|-----------------|-----------------|-----------------|-----------------|
G|-----------------|-----------------|-7-7-7-7-7-7-7-7-|-----------------|
D|-----------------|-----------------|-7-7-7-7-7-7-7-7-|-7-7-7-7-7-------|
A|-5-5-5-5-5-5-5-5-|-7-7-7-7-7-7-7-7-|-5-5-5-5-5-5-5-5-|-5-5-5-5-5-------|
E|-3-3-3-3-3-3-3-3-|-5-5-5-5-5-5-5-5-|-----------------|-5-5-5-5-5-1^----|
  P.M...............................                     P.M......

Chorus:


e||-----------------|-----------------|-----------------|-----------------|
B||-----------------|-----------------|-----------------|-----------------|
G||-----------------|-----------------|-----------------|-----------------|
D||-7-7-7-----7-7-7-|-7-7-7-----7-7-7-|-----------------|-----------------|
A||-5-5-5-----5-5-5-|-5-5-5-----5-5-5-|-7-7-7-----7-7-7-|-7-7-7-----7-7-7-|
E||-----------------|-----------------|-5-5-5-----5-5-5-|-5-5-5-----5-5-5-|

                                                                          x2
e|-----------------|-----------------|-----------------|------------------||
B|-----------------|-----------------|-----------------|-----------------o||
G|-----------------|-----------------|-----------------|------------------||
D|-----------------|-----------------|-----------------|------------------||
A|-9-9-9-----9-9-9-|-9-9-9-----9-9-9-|-5-5-5-----5-5-5-|-5-5-5-----5-5-5-o||
E|-7-7-7-----7-7-7-|-7-7-7-----7-7-7-|-3-3-3-----3-3-3-|-3-3-3-----3-3-3--||



Note4: The Intro/Lead Riff is played througout the chorus.


Pre-Verse:

e|-----------------|-DRUM FILL---------------------------------------------|
B|-----------------|---------DRUM FILL-------------------------------------|
G|-7~--------------|------------------DRUM FILL----------------------------|
D|-7~--------------|---------------------------DRUM FILL-------------------|
A|-5~--------------|------------------------------------DRUM FILL----------|
E|-----------------|---------------------------------------------DRUM FILL-|





Bridge/Lead:

e||-2-2-2-2-2-2-2-2-|-2-2-2-2-2-2-2-2-|-0-0-0-0-0-0-0-0-|-0-0-0-0-0-0-0-0-|
B||o3-3-3-3-3-3-3-3-|-3-3-3-3-3-3-3-3-|-3-3-3-3-3-3-3-3-|-3-3-3-3-3-3-3-3-|
G||-----------------|-----------------|-----------------|-----------------|
D||-----------------|-----------------|-----------------|-----------------|
A||o----------------|-----------------|-----------------|-----------------|
E||-----------------|-----------------|-----------------|-----------------|

                                                                         x2
e|-5-5-5-5-5-5-5-5-|-5-5-5-5-5-5-5-5-|-0-0-0-2-2-2-2-2-|-3-3-3-2-2-2-2-2-||
B|-3-3-3-3-3-3-3-3-|-3-3-3-3-3-3-3-3-|-3-3-3-3-3-3-3-3-|-3-3-3-3-3-3-3-3o||
G|-----------------|-----------------|-----------------|-----------------||
D|-----------------|-----------------|-----------------|-----------------||
A|-----------------|-----------------|-----------------|----------------o||
E|-----------------|-----------------|-----------------|-----------------||

                                                     x4
e||--------20-------20------|-------20------20-------||
B||o------------------------|-----------------------o||
G||--18h19----18h19---18h19-|-18h19---18h19---18h19--||
D||-------------------------|------------------------||
A||o------------------------|-----------------------o||
E||-------------------------|------------------------||


Bridge/Rhythm:

e|-----------------|-----------------|-----------------|-----------------|
B|-----------------|-----------------|-----------------|-----------------|
G|-----------------|-----------------|-----------------|-----------------|
D|-7-7-7-7-7-7-7-7-|-7-7-7-7-7-7-7-7-|-----------------|-----------------|
A|-5-5-5-5-5-5-5-5-|-5-5-5-5-5-5-5-5-|-7-7-7-7-7-7-7-7-|-7-7-7-7-7-7-7-7-|
E|-----------------|-----------------|-5-5-5-5-5-5-5-5-|-5-5-5-5-5-5-5-5-|

                                                                          
e|-----------------|-----------------|-----------------|-----------------|
B|-----------------|-----------------|-----------------|-----------------|
G|-----------------|-----------------|-----------------|-----------------|
D|-----------------|-----------------|-----------------|-----------------|
A|-9-9-9-9-9-9-9-9-|-9-9-9-9-9-9-9-9-|-5-5-5-5-5-5-5-5-|-5-5-5-5-5-5-5-5-|
E|-7-7-7-7-7-7-7-7-|-7-7-7-7-7-7-7-7-|-3-3-3-3-3-3-3-3-|-3-3-3-3-3-3-3-3-|

Note5: This is played very quietly throughout the bridge, all palm muted. 
       ****Turn the volume knob on the actual guitar down to 2 or 3.****


Interlude:
{w/ less distortion}


e||-----------------|-----------------|-----------------|-----------------|
B||o----------------|-----------------|-----------------|-----------------|
G||-----------------|-----------------|-----------------|-----------------|
D||-----------------|-----------------|-----------------|-----------------|
A||o5-5-5-5-5-5-5-5-|-5-5-5-5-5-5-5-5-|-----------------|-----------------|
E||-----------------|-----------------|-5-5-5-5-5-5-5-5-|-5-5-5-5-5-5-5-5-|

                                      ^*^
e|-----------------|-----------------|-----------------|-----------------|
B|-----------------|-----------------|-----------------|-----------------|
G|-----------------|-----------------|-----------------|-----------------|
D|-----------------|-----------------|-5-5-5-5-5-5-5-5-|-5-5-5-5-7~~-----|
A|-----------------|-----------------|-5-5-5-5-5-5-5-5-|-5-5-5-5-7~~-----|
E|-7-7-7-7-7-7-7-7-|-7-7-7-7-7-7-7-7-|-3-3-3-3-3-3-3-3-|-3-3-3-3-5~~-----|


^*^ : Put distortion back on here.


End guitar playing on:

e|--------
B|--------
G|-7~~----
D|-7~~----
A|-5~~----
E|--------


After this, there's some weird Aaaaahhhh vocals, but there is no other guitar playing.



Note1:

e||------5-----5-----|-----5-----5------||
B||o-----------------|-----------------o||
G||--6h7---6h7---6h7-|-6h7---6h7---6h7--||
D||------------------|------------------||
A||o-----------------|-----------------o||
E||------------------|------------------||




e||--------20-------20------|-------20------20-------||
B||o------------------------|-----------------------o||
G||--18h19----18h19---18h19-|-18h19---18h19---18h19--||
D||-------------------------|------------------------||
A||o------------------------|-----------------------o||
E||-------------------------|------------------------||

   ^This is the main riff, but one octave higher.




Intro
Verse
Pre-Chorus
Chorus
Pre-Verse
Verse
Pre-Chorus
Chorus
Pre-Verse
Bridge
Interlude
Chorus
Chorus
Guitar End




P.M Palm Mute
h   Hammer on
p   Pull Off
^   Bend up 1/4 tone
~   Let ring
|o
|   Repeat
|
|o
Tap to rate this tab
 
# A B C D E F G H I J K L M N O P Q R S T U V W X Y Z