Song name
# A B C D E F G H I J K L M N O P Q R S T U V W X Y Z

Go Audio - Drive To The City tab

-------------------------------------------------------------------------------
			     DRIVE TO THE CITY - Go:Audio
-------------------------------------------------------------------------------
from the album Made Up Stories (2009)
Tabbed by:Luke N3
Email: lukenicholls@hotmail.co.uk

Tuning:Standard (EADGBE)

verse 1:simple chords through the 2nd half of the verse
    D     A     E
e|--2-----0-----0------------------------------------------------------------|
B|--3-----2-----0------------------------------------------------------------|
G|--2-----2-----1------------------------------------------------------------|  X2
D|--0-----2-----2------------------------------------------------------------|
A|--------0-----2------------------------------------------------------------|
E|--------0-----0------------------------------------------------------------|

Chorus:

e|---------------------------------------------------------------------------|
B|---------------------------------------------------------------------------|
G|------------22222222--------------77777777---------------------------------|  X2
D|-44444444---22222222---22222222---77777777---------------------------------|
A|-44444444---00000000---22222222---55555555---------------------------------|
E|-22222222--------------00000000--------------------------------------------|

e|---------------------------------------------------------------------------|
B|---------------------------------------------------------------------------|
G|-22222222---66666666--------------77777777---22222222---66666666-----------|
D|-22222222---66666666---44444444---77777777---22222222---66666666-----------|
A|-00000000---44444444---44444444---55555555---00000000---44444444-----------|
E|-----------------------22222222--------------------------------------------|

e|---------------------------------------------------------------------------|
B|---------------------------------------------------------------------------|
G|---------------------------------------------------------------------------|
D|-44444444------------------------------------------------------------------|
A|-44444444------------------------------------------------------------------|
E|-22222222------------------------------------------------------------------|

Verse 2: Half way through the 2nd verse you will hear some faint guitar that goes like this:

e|-5--5--5h7-7p5-5h7-7p5-5h7-7p5---------------------------------------------|           
                   X2
B|-5--5--5---5---5---5---5----5----------------------------------------------|
G|---------------------------------------------------------------------------|
D|---------------------------------------------------------------------------|
A|---------------------------------------------------------------------------|
E|---------------------------------------------------------------------------|
(Chorus)Then for the breakdown you play the same chords as the first verse

Final Chorus: (Slightly Different)
e|---------------------------------------------------------------------------|
B|---------------------------------------------------------------------------|
G|-44444444------------------------------------------------------------------|           
                               X4
D|-44444444---44444444---22222222---44444444---------------------------------|
A|-22222222---44444444---22222222---44444444---------------------------------|
E|------------22222222---00000000---22222222---------------------------------|

e|---------------------------------------------------------------------------|
B|---------------------------------------------------------------------------|
G|-44444444---88888888--------------99999999---44444444---88888888-----------|
D|-44444444---88888888---66666666---99999999---44444444---88888888-----------|
A|-22222222---66666666---66666666---77777777---22222222---66666666-----------|
E|-----------------------44444444--------------------------------------------|

e|---------------------------------------------------------------------------|
B|---------------------------------------------------------------------------|
G|---------------------------------------------------------------------------|
D|-66666666------------------------------------------------------------------|
A|-66666666------------------------------------------------------------------|
E|-44444444------------------------------------------------------------------|


And thats it :)

| /  slide up
| \  slide down
| h  hammer-on
| p  pull-off
| ~  vibrato
| +  harmonic
| x  Mute note
===============================================================================
Tap to rate this tab
# A B C D E F G H I J K L M N O P Q R S T U V W X Y Z