Song name
# A B C D E F G H I J K L M N O P Q R S T U V W X Y Z

Go Back To The Zoo - Electric tab

Hello,
This is my first tab.
i'm not sure if everything is correct, but it sounds like the guitar in the song



e |----------------------|-------------------|
B |----------------------|-------------------|
G |--18----16--18----13--|--11----13--11-----|
D |----------------------|---------------11--|
A |----------------------|-------------------|
E |----------------------|-------------------|

also possible is:

e |----------------------|-------------------|
B |--14----12--14----9---|--7----9--7--------|
G |----------------------|------------6------|
D |----------------------|-------------------|
A |----------------------|-------------------|
E |----------------------|-------------------|


this is all what is got (for now).
Tap to rate this tab
 
# A B C D E F G H I J K L M N O P Q R S T U V W X Y Z