Song name
# A B C D E F G H I J K L M N O P Q R S T U V W X Y Z

Go Back To The Zoo - Electric tab

Go Back To The Zoo - Electric

Made By: Squizz1990

Tuning in E.

chorus
So Electric.. oohhwaa..
7--9--7----------------------------------------------------------|
---------9----7--7--5---------7--9--7------7--9--7---------------|
----------------------6---------------6------------6-------------|
-----------------------------------------------------------------|
-----------------------------------------------------------------|
-----------------------------------------------------------------|

verse
She's got a song I wanna sing...
-----------------------------------------------------------------|
9--7--9--5-------------------------------------------------------|
---------------6--4--6-------------------------------------------|
--------------------------6--6--6--8--9--11--9--8--6-------------|
-----------------------------------------------------------------|
-----------------------------------------------------------------|

I Got This song.

-----------------------------------------------------------------|
-----------------------------------------------------------------|
-------------------4---------------------------------------------|
7------------------4---------------------------------------------|
7------------------2---------------------------------------------|
5----------------------------------------------------------------|
Tap to rate this tab
 
# A B C D E F G H I J K L M N O P Q R S T U V W X Y Z