Song name
# A B C D E F G H I J K L M N O P Q R S T U V W X Y Z

Go Back To The Zoo - Beam Me Up tab

-------------------------------------------------------------------------------
			     Beam me up  Go back to the zo
-------------------------------------------------------------------------------
Tabbed by: STD:
Email: http://malehirujoto.hyves.nl/

Tuning: E-A-D-G-B-E

Main riff, listen to the song for the rhythm.

e|-4---5---5---4-------------------------------------------------------------------|
B|-5---5---6---4-------------------------------------------------------------------|
G|-6---6---5---4-------------------------------------------------------------------|
D|-6---7---6---4-------------------------------------------------------------------|
A|-----7---------------------------------------------------------------------------|
E|---------------------------------------------------------------------------------|

(Pre-)chorus
e|-5-----9----5---9----5---9----5-------4---4---4---4------------------------------|
B|-5-----9----5---9----5---9----5-------5---4---5---4------------------------------|
G|-6-----10---6---10---6---10---6-------6---4---6---4------------------------------|
D|-7-----11---7---11---7---11---7-------6---4---6---4------------------------------|
A|-7-----11---7---11---7---11---7--------------------------------------------------|
E|-5-----9----5---9----5---9----5--------------------------------------------------|


Bridge:

(who oh oh who oh oh oh)                      chorus chords

e|---9-----7------2-----5----7------------------------------------------------|
B|---9-----7------2-----5----7------------------------------------------------|
G|---10----8------3-----6----8------------------------------------------------|
D|---11----9------4-----7----9------------------------------------------------|
A|---11----9------4-----7----9------------------------------------------------|
E|---9-----7------2-----5----7------------------------------------------------|
Tap to rate this tab
 
# A B C D E F G H I J K L M N O P Q R S T U V W X Y Z