Song name
# A B C D E F G H I J K L M N O P Q R S T U V W X Y Z

Go Back To The Zoo - Electric tab

Go Back to the Zoo - Electric

Standard tuning


Intro/Chorus
  C#m           Bm               F#m                 E
e|--9𧯡------|-----------------|------------------|---------------|
B|----------9--|--7--9--7--------|--7--9--7---------|--7--9--7------|
G|-------------|-------------6---|-------------6----|-------------6-|
D|-------------|-----------------|------------------|---------------|
A|-------------|-----------------|------------------|---------------|
E|-------------|-----------------|------------------|---------------|

Verses
 C#m/C#m7
e|-----------|--------------|--------------|--------------|
B|--9--7--9--5-|--------------|--------------|--------------|
G|-------------|--6--4--6--1--|--1--1--3--4--|--6--4--3--1--|
D|-------------|--------------|--------------|--------------|
A|-------------|--------------|--------------|--------------|
E|-------------|--------------|--------------|--------------|

NvR
Tap to rate this tab
# A B C D E F G H I J K L M N O P Q R S T U V W X Y Z