Song name
# A B C D E F G H I J K L M N O P Q R S T U V W X Y Z

Go Back To The Zoo - Electric tab

Electric
Go Back To The Zoo
From the 2010 Album Benny Blisto
Transcribed by Lennart Lenssen

It is not a very difficult song to play, but there was no correct tab yet. So enjoy!


Main Riff:

E-----------------------------------------------------------|
B--14-12-14-------------------------------------------------|
G-----------13--11-11-9----11-13-11----11-13-11-------------|
D-----------------------11----------11----------11----------|
A-----------------------------------------------------------|
E-----------------------------------------------------------|  2x

Verse:

E-----------------------------------------------------------|
B-----------------------------------------------------------|
G--13-11-13-------------------------------------------------|
D-----------14--11-9-11-----------------11------------------|
A-----------------------11--11-11-13-14----14-13-11---------|
E-----------------------------------------------------------|  2x

Pre Chorus:

E-----------------------------------------------------------|
B-----------------------------------------------------------|
G--13-11-13-------------------------------------------------|
D-----------14-11-9-11--------------------------------------|
A-----------------------------------------------------------|
E-----------------------------------------------------------| 

Main Riff

Verse

Pre Chorus 2:

E-----------------------------------------------------------|
B-----------------------------------------------------------|
G--13-11-13-------------------------------------------------|
D-----------14--11-9-11-----------------11------------------|
A-----------------------11--11-11-13-14----14-13-11---------|
E-----------------------------------------------------------|

E-----------------------------------------------------------|
B-----------------------------------------------------------|
G--13-11-13-------------------------------------------------|
D-----------14--11-9-11-----------------11------------------|
A-----------------------11--11-11-13-14----14-13------------|
E-----------------------------------------------------------|

Main Riff 2x

Bridge:

E-----------------------------------------------------------|
B-----------------------------------------------------------|
G--15b18--17b20--19b21--21b23-------------------------------|
D-----------------------------------------------------------|
A-----------------------------------------------------------|
E-----------------------------------------------------------|

Main Riff 2x
Tap to rate this tab
 
# A B C D E F G H I J K L M N O P Q R S T U V W X Y Z