Song name
# A B C D E F G H I J K L M N O P Q R S T U V W X Y Z

Go Back To The Zoo - Electric tab

Song: Electric
Artist: Go Back To The Zoo
Album: Benny Blisto

Made by Kjeld Groot


Intro:

  C#m                        C#m
e|--9---9---9---9---9---9---|--9---9---9---9---9---9---|
B|--9---9---9---9---9---9---|--9---9---9---9---9---9---|
G|--9---9---9---9---9---9---|--11--11--11--11--11--11--|
D|--11--11--11--11--11--11--|--11--11--11--11--11--11--|
A|--------------------------|--------------------------|
E|--------------------------|--------------------------|

chorus1:

  C#m             B                 F#m              E
e|--9------9-----|-----------------|----------------|----------------|
B|-----12-----9--|-----------------|------9---------|------9---------|
G|---------------|--11--11--9------|--11----11------|--11----11------|
D|---------------|-------------11--|------------11--|------------11--|
A|---------------|-----------------|----------------|----------------|
E|---------------|-----------------|----------------|----------------|

Chorus2:
  C#m            C#m
e|-----4-----4--|-----4-----4--|
B|-----5-----5--|-----5-----5--|
G|-----6-----6--|-----6-----6--|
D|-----6-----6--|-----6-----6--|
A|--4--4--4--4--|--4--4--4--4--|
E|--------------|--------------|

Verse1:

 C#m                          C#m
e|--9---9---9---9---9---9---|--9---9---9---9---9---9---|
B|--9---9---9---9---9---9---|--9---9---9---9---9---9---|
G|--9---9---9---9---9---9---|--11--11--11--11--11--11--|
D|--11--11--11--11--11--11--|--11--11--11--11--11--11--|
A|--------------------------|--------------------------|
E|--------------------------|--------------------------|

Verse2:

  C#m             C#m              C#m              C#m
e|---------------|----------------|----------------|----------------|
B|--9------9-----|----------------|----------------|----------------|
G|-----11-----9--|----------------|----------------|----------------|
D|---------------|--9--9--11------|----------8--9--|--11--9--8------|
A|---------------|------------11--|--11--11--------|------------11--|
E|---------------|----------------|----------------|----------------|

Verse3:

  C#m             C#m
e|---------------|---------------|
B|--9------9-----|---------------|
G|-----11-----9--|---------------|
D|---------------|--11--9--11----|
A|---------------|---------------|
E|---------------|---------------|

Bridge:

  A                          B
e|--0--0--0--0--0--0--0--0--|--2--2--2--2--2--2--2--2--|
B|--2--2--2--2--2--2--2--2--|--4--4--4--4--4--4--4--4--|
G|--2--2--2--2--2--2--2--2--|--4--4--4--4--4--4--4--4--|
D|--2--2--2--2--2--2--2--2--|--4--4--4--4--4--4--4--4--|
A|--0--0--0--0--0--0--0--0--|--2--2--2--2--2--2--2--2--|
E|--------------------------|--------------------------|

Song:
Intro  2x
Chorus1  2x
Verse1  2x
Verse2  2x
Verse3  1x
Chorus1  2x
Chorus2  1x
Verse2  4x
Chorus1  4x
Bridge  2x
Chorus1  4x
Chorus2  1x
Tap to rate this tab
 
# A B C D E F G H I J K L M N O P Q R S T U V W X Y Z