Song name
# A B C D E F G H I J K L M N O P Q R S T U V W X Y Z

Go Back To The Zoo - Electric tab

-------------------------------------------------------------------------------
			     ELECTRIC - Go Back To The Zoo
-------------------------------------------------------------------------------
Tabbed by: Merlijn.

Tuning: Standard (EADGBe)

Intro 1:
  C#m                        C#m
e|--9---9---9---9---9---9---|--9---9---9---9---9---9---|
B|--9---9---9---9---9---9---|--9---9---9---9---9---9---|
G|--9---9---9---9---9---9---|--11--11--11--11--11--11--|
D|--11--11--11--11--11--11--|--11--11--11--11--11--11--|
A|--------------------------|--------------------------|
E|--------------------------|--------------------------|

Intro 2:
  C#m            B              F#m            E
e|--9--7--9-----|--------------|--------------|--------------|
B|-----------9~-|--7--7--5-----|--7--9--7-----|--7--9--7-----|
G|--------------|-----------6~-|-----------6~-|-----------6~-|
D|--------------|--------------|--------------|--------------|
A|--------------|--------------|--------------|--------------|
E|--------------|--------------|--------------|--------------|


Verse:

Rythm guitar (clean):
  C#m
e|--9---9---9---9---9---9---|
B|--9---9---9---9---9---9---|
G|--9---9---9---9---9---9---| repeat this during 
D|--11--11--11--11--11--11--| the whole verse
A|--------------------------|
E|--------------------------|

Lead Guitar (distorted):
  C#m            C#m            C#m            C#m
e|--------------|--------------|--------------|---------------|
B|--9--7--9--9~-|--------------|--------------|---------------|
G|-----------9~-|--6--4--6-----|--------------|---------------|
D|--------------|-----------6~-|--6--6--8--9~-|--11--9--8--6~-|
A|--------------|--------------|--------------|---------------|
E|--------------|--------------|--------------|---------------|


Pre-Chorus:
  C#m            C#m
e|--------------|--------------|
B|--9--7--9--9~-|--------------|
G|-----------9~-|--6--4--6~----| let this note ring
D|--------------|--------------| then go to chorus
A|--------------|--------------|
E|--------------|--------------|


Chorus:

  C#m            B              F#m            E
e|--9--7--9-----|--------------|--------------|--------------|
B|-----------9~-|--7--7--5-----|--7--9--7-----|--7--9--7-----|
G|--------------|-----------6~-|-----------6~-|-----------6~-|
D|--------------|--------------|--------------|--------------|
A|--------------|--------------|--------------|--------------|
E|--------------|--------------|--------------|--------------|


Interlude/outro:

  C#m            C#m
e|-----4-----4--|-----4-----4--|
B|-----5-----5--|-----5-----5--|
G|-----6-----6--|-----6-----6--|
D|-----6-----6--|-----6-----6--|
A|--4--4--4--4--|--4--4--4--4--|
E|--------------|--------------|


Bridge:

Rythm guitar:
  C#m                          B
e|--4--4--4--4--4--4--4--4--|--2--2--2--2--2--2--2--2--|
B|--5--5--5--5--5--5--5--5--|--4--4--4--4--4--4--4--4--|
G|--6--6--6--6--6--6--6--6--|--4--4--4--4--4--4--4--4--|x2
D|--6--6--6--6--6--6--6--6--|--4--4--4--4--4--4--4--4--|
A|--4--4--4--4--4--4--4--4--|--2--2--2--2--2--2--2--2--|
E|--------------------------|--------------------------|

Lead:
  C#m                                B 
e|----------------------------------|--------------------------------------|
B|--14--14--14--14--14--14--14--14--|--16--16--16--16--16--16--16--16--16--|
G|--x---x---x---x---x---x---x---x---|--x---x---x---x---x---x---x---x---x---|
D|--11--11--11--11--11--11--11--11--|--13--13--13--13--13--13--13--13--13--|
A|----------------------------------|--------------------------------------|
E|----------------------------------|--------------------------------------|
  C#m                                B
e|----------------------------------|--------------------------------------|
B|--17--17--17--17--17--17--17--17--|--21--21--21--21--21--21--21--21--21--|
G|--x---x---x---x---x---x---x---x---|--x---x---x---x---x---x---x---x---x---|
D|--14--14--14--14--14--14--14--14--|--18--18--18--18--18--18--18--18--18--|
A|----------------------------------|--------------------------------------|
E|----------------------------------|--------------------------------------|




Listen to the song to get the rythm right, espicially the lead part of the bridge.
Enjoy!


Song:

Intro 1           2x
Intro 2           2x
Verse (no lead)   1x
Verse (with lead) 2x
Pre-Chorus        1x
Chorus            2x
Interlude/outro   1x
Verse (with lead) 2x
Verse (no rythm)  2x
Chorus            4x
Bridge            1x
Chorus            4x
Interlude/outro   1x


************************************

| /   slide up
| \   slide down
| h   hammer-on
| p   pull-off
| ~   vibrato
| x   Mute note
| b   Bend

************************************
Tap to rate this tab
 
# A B C D E F G H I J K L M N O P Q R S T U V W X Y Z