Song name
# A B C D E F G H I J K L M N O P Q R S T U V W X Y Z

Go Back To The Zoo - Smoking On The Balcony tab

Go Back To The Zoo - Smoking On The Balcony

Chords:
Bm:    7-9-9-7-7-7
F#m:   9-9-11-11-10-9
G:     10-10-12-12-10-10
D:     x-x-0-2-3-2 
Dsus4: x-x-0-2-3-3
B:	 x-2-4-4-2-2

-------------------------------------------

Intro:

| D ~~ | D ~ |

e|---------------------------|
B|--10h12p10h12p10h12p10h12--|
G|---------------------------|
D|---------------------------|
A|---------------------------|     etc.
E|---------------------------|

Gitaar I:
e|-----------------------------------|
B|--7-7-7-7-7-8-8-8-7-7-7-7-7-7-7-7--|
G|--7-7-7-7-7-7-7-7-7-7-7-7-7-7-7-7--|
D|--7-7-7-7-7-9-9-9-9-9-9-9-9-9-9-9--|
A|-----------------------------------|
E|-----------------------------------|			4x

Gitaar II:
e|--------------10-------------10-------10---|
B|--10h12p10h12----10h12p10h12----10h12------|
G|-------------------------------------------|
D|-------------------------------------------|
A|-------------------------------------------|
E|-------------------------------------------|

 |--------------10-------10-------10-----|
 |--10h12p10h12----10h12----10h12----10--|
 |---------------------------------------|
 |---------------------------------------|
 |---------------------------------------|
 |---------------------------------------|		4x

Verse 1:

e|-----------------------|
B|--7--8----7---7-8-7-8--|
G|--7--7----7---7-7-7-7--|
D|-----------------------|
A|-----------------------|
E|-----------------------|

         D
Thereís nothing left to do here on a Saturday night
    D
The same old boring feast youíve known all your life
    D
The feelers on the left, the jokers on the right
Come on, come on, come on, come on

Chorus:

Gitaar I:
e|-----------------------------------|
B|--7-7-7-7-7-8-8-8-7-7-7-7-7-7-7-7--|
G|--7-7-7-7-7-7-7-7-7-7-7-7-7-7-7-7--|
D|--7-7-7-7-7-9-9-9-9-9-9-9-9-9-9-9--|
A|-----------------------------------|
E|-----------------------------------|			4x

Gitaar II:
e|--------------10-------------10-------10---|
B|--10h12p10h12----10h12p10h12----10h12------|
G|-------------------------------------------|
D|-------------------------------------------|
A|-------------------------------------------|
E|-------------------------------------------|

 |--------------10-------10-------10-----|
 |--10h12p10h12----10h12----10h12----10--|
 |---------------------------------------|
 |---------------------------------------|
 |---------------------------------------|
 |---------------------------------------|		4x

				   D         Dsus4   B
You left me smoking on the balcony
			    D         Dsus4   B
Like everything was alright
				   D         Dsus4   B
You left me smoking on the balcony
			    D         Dsus4   B
Like everything was alright

Verse 2:

e|-----------------------|
B|--7--8----7---7-8-7-8--|
G|--7--7----7---7-7-7-7--|
D|-----------------------|
A|-----------------------|
E|-----------------------|

    D
Iím singing for a touch you try to get at me
 D
Holliní themselves for not a single day
     D
Sophisticated friends who play in a rock ní roll band
So come on, come on, come on
And leave us smoking alone

Chorus:

Gitaar I:
e|-----------------------------------|
B|--7-7-7-7-7-8-8-8-7-7-7-7-7-7-7-7--|
G|--7-7-7-7-7-7-7-7-7-7-7-7-7-7-7-7--|
D|--7-7-7-7-7-9-9-9-9-9-9-9-9-9-9-9--|
A|-----------------------------------|
E|-----------------------------------|			4x

Gitaar II:
e|--------------10-------------10-------10---|
B|--10h12p10h12----10h12p10h12----10h12------|
G|-------------------------------------------|
D|-------------------------------------------|
A|-------------------------------------------|
E|-------------------------------------------|

 |--------------10-------10-------10-----|
 |--10h12p10h12----10h12----10h12----10--|
 |---------------------------------------|
 |---------------------------------------|
 |---------------------------------------|
 |---------------------------------------|		4x

				   D         Dsus4   B
You left me smoking on the balcony
			    D         Dsus4   B
Like everything was alright
				   D         Dsus4   B
You left me smoking on the balcony
			    D         Dsus4   B
Like everything was alright

Bridge:

Bm  F#   G  
We donít know
         G    F#    Bm
What weíre running for
Bm  F#   G  
We donít know
         G    F#    Bm
What weíre running for

e|-----------------------|
B|--7--8----7---7-8-7-8--|
G|--7--7----7---7-7-7-7--|
D|-----------------------|
A|-----------------------|
E|-----------------------|

Verse 3:

e|-----------------------|
B|--7--8----7---7-8-7-8--|
G|--7--7----7---7-7-7-7--|
D|-----------------------|
A|-----------------------|
E|-----------------------|

         D
Thereís nothing left to do here on a Saturday night
     D
Iíve seen somebody hearts praised on the big city lights
     D
The feelers on the left, the forties on the right
Now come on, come on, come on, come on

Chorus:

Gitaar I:
e|-----------------------------------|
B|--7-7-7-7-7-8-8-8-7-7-7-7-7-7-7-7--|
G|--7-7-7-7-7-7-7-7-7-7-7-7-7-7-7-7--|
D|--7-7-7-7-7-9-9-9-9-9-9-9-9-9-9-9--|
A|-----------------------------------|
E|-----------------------------------|			8x

Gitaar II:
e|--------------10-------------10-------10---|
B|--10h12p10h12----10h12p10h12----10h12------|
G|-------------------------------------------|
D|-------------------------------------------|
A|-------------------------------------------|
E|-------------------------------------------|

 |--------------10-------10-------10-----|
 |--10h12p10h12----10h12----10h12----10--|
 |---------------------------------------|
 |---------------------------------------|
 |---------------------------------------|
 |---------------------------------------|		8x

				   D         Dsus4   B
You left me smoking on the balcony
			    D         Dsus4   B
Like everything was alright
				   D         Dsus4   B
You left me smoking on the balcony
			    D         Dsus4   B
Like everything was alright
Like everything was alright
Like everything was alright
Like everything was alright
	
Tap to rate this tab
# A B C D E F G H I J K L M N O P Q R S T U V W X Y Z