Song name
# A B C D E F G H I J K L M N O P Q R S T U V W X Y Z

Go Back To The Zoo - Smoking On The Balcony tab

Track: Smoking on the Balcony
Band: Go Back To The Zoo
Album: Benny Blisto

Standard tuning

4 hi-hat hits 

|-------------------------|
|-7--7--7--7--7--7--7--7--|
|-7--7--7--7--7--7--7--7--| 4x
|-7--7--7--7--7--7--7--7--|
|-5--5--5--5--5--5--5--5--|
|-------------------------|

|--------------------------------|
|10ho12po10ho12po10ho12po10ho12po|
|--------------------------------| 8 x 
|--------------------------------|(rythm: 1x fig. 1 = 2x fig. 2)
|--------------------------------|
|--------------------------------|

|-------------------7-7-7-7-7--5-5-5-|
|-7-7-7-7-7--8-8-8--7-7-7-7-7--5-5-5-|
|-7-7-7-7-7--9-9-9--7-7-7-7-7--6-6-6-| 4x
|-7-7-7-7-7--9-9-9--9-9-9-9-9--7-7-7-|
|-5-5-5-5-5--7-7-7--9-9-9-9-9--7-7-7-|
|-------------------7-7-7-7-7--5-5-5-|

Meanwhile:

|---------------10---------------10--------10--------------------|
|-10ho12po10ho12---10ho12po10ho12----10ho12----------------------|
|----------------------------------------------------------------|
|----------------------------------------------------------------|
|----------------------------------------------------------------|
|----------------------------------------------------------------|

|---------------10-------10--------------------------------------|
|-10ho12po10ho12---10ho12-----10ho12po10-------------------------|
|----------------------------------------------------------------|
|----------------------------------------------------------------|
|----------------------------------------------------------------|
|----------------------------------------------------------------|

|---------------10---------------10----10------------------------|
|-10ho12po10ho12---10ho12po10ho12----12--------------------------|
|----------------------------------------------------------------|
|----------------------------------------------------------------|
|----------------------------------------------------------------|
|----------------------------------------------------------------|

|---------------10-----------------------------------------------|
|-10ho12po10ho12---10ho12po10ho12po10----------------------------|
|-------------------------------------12-11----------------------|
|----------------------------------------------------------------|
|----------------------------------------------------------------|
|----------------------------------------------------------------|

|---------------10---------------10--------10--------------------|
|-10ho12po10ho12---10ho12po10ho12----10ho12----------------------|
|----------------------------------------------------------------|
|----------------------------------------------------------------|
|----------------------------------------------------------------|
|----------------------------------------------------------------|

|---------------10-----------------------------------------------|
|-10ho12po10ho12---10ho12po10ho12po10-12-10----------------------|
|----------------------------------------------------------------|
|----------------------------------------------------------------|
|----------------------------------------------------------------|
|----------------------------------------------------------------|

|---------------10---------------10--------10--------------------|
|-10ho12po10ho12---10ho12po10ho12----10ho12----------------------|
|----------------------------------------------------------------|
|----------------------------------------------------------------|
|----------------------------------------------------------------|
|----------------------------------------------------------------|

|---------------10-----------------------------------------------|
|-10ho12po10ho12---10ho12po10ho12po10----------------------------|
|-------------------------------------12-11----------------------|
|----------------------------------------------------------------|
|----------------------------------------------------------------|
|----------------------------------------------------------------|


Verse

Thereís nothing left to do here on a Saturday night
|-------------------------------------------------------------|
|-------5---------------6------------5--------5--6--5--6------|
|-------5---------------5------------5--------5--5--5--5------| 4x
|-------5---------------7------------5--------5--7--5--7------|
|-------------------------------------------------------------|
|-------------------------------------------------------------|

The same old boring feast youíve known all your life
The feelers on the left, the jokers on the right
Now come on, come on, come on, come on


Chorus

|-------------------7-7-7-7-7--5-5-5-|
|-7-7-7-7-7--8-8-8--7-7-7-7-7--5-5-5-|
|-7-7-7-7-7--9-9-9--7-7-7-7-7--6-6-6-| 4x
|-7-7-7-7-7--9-9-9--9-9-9-9-9--7-7-7-|
|-5-5-5-5-5--7-7-7--9-9-9-9-9--7-7-7-|
|-------------------7-7-7-7-7--5-5-5-|

You left me smoking on the balcony
Like everything was all right
You left me smoking on the balcony
Like everything was all right


Verse

|-------------------------------------------------------------|
|-------5---------------6------------5--------5--6--5--6------|
|-------5---------------5------------5--------5--5--5--5------| 4x
|-------5---------------7------------5--------5--7--5--7------|
|-------------------------------------------------------------|
|-------------------------------------------------------------|

Meanwhile

|------------------------10--10--12/15-15-15--14-|
|-12-10---7---7--7-------10--10--12/15-15-15--14-|
|-12-11---7---7--7-------------------------------| 4x
|------------------------------------------------|
|------------------------------------------------|
|------------------------------------------------|

Iím singing for a touch you try to get at me
Holliní themselves for not a single day
Sophisticated friends who play in  rock ní roll bands
So come on, come on, come on
And leave us smoking alone


Chorus

|-------------------7-7-7-7-7--5-5-5-|
|-7-7-7-7-7--8-8-8--7-7-7-7-7--5-5-5-|
|-7-7-7-7-7--9-9-9--7-7-7-7-7--6-6-6-| 4x
|-7-7-7-7-7--9-9-9--9-9-9-9-9--7-7-7-|
|-5-5-5-5-5--7-7-7--9-9-9-9-9--7-7-7-|
|-------------------7-7-7-7-7--5-5-5-|

You left me smoking on the balcony
Like everything was all right
You left me smoking on the balcony
Like everything was all right


Bridge

   We   donít know          What weíre running for       
|--7----9----10~----------10---9------------7~-------------------|
|--7----10---12~----------12---10-----------7~-------------------|
|--7----11---12~----------12---11-----------7~-------------------|
|--9----11---12~----------12---11-----------9~-------------------|
|--9----9----10~----------10---9------------9~-------------------|
|--7----------------------------------------7~-------------------|

   We   donít know          What weíre running for       
|--7----9----10~----------10---9------------7~----5~-------------|
|--7----10---12~----------12---10-----------7~----5~-------------|
|--7----11---12~----------12---11-----------7~----6~-------------|
|--9----11---12~----------12---11-----------9~----7~-------------|
|--9----9----10~----------10---9------------9~----7~-------------|
|--7----------------------------------------7~----5~-------------|

Verse

|-------------------------------------------------------------|
|-------5---------------6------------5--------5--6--5--6------|
|-------5---------------5------------5--------5--5--5--5------| 6x
|-------5---------------7------------5--------5--7--5--7------|
|-------------------------------------------------------------|
|-------------------------------------------------------------|

At the third time:

Thereís nothing left to do here on a Saturday night
Iím sick of all these hearts praised on  big city lights
The feelers on the left, the forties on the right
Now come on, come on, come on, come on

Chorus

|-------------------7-7-7-7-7--5-5-5-|
|-7-7-7-7-7--8-8-8--7-7-7-7-7--5-5-5-|
|-7-7-7-7-7--9-9-9--7-7-7-7-7--6-6-6-| 8x
|-7-7-7-7-7--9-9-9--9-9-9-9-9--7-7-7-|
|-5-5-5-5-5--7-7-7--9-9-9-9-9--7-7-7-|
|-------------------7-7-7-7-7--5-5-5-|

You left me smoking on the balcony
Like everything was all right
You left me smoking on the balcony
Like everything was all right
Like everything was alright
Like everything was alright
Like everything was aaaaaaaalright
Like everything was alri-i-i-i-ight


Outro

|----------------------|
|----------------------|
|-------------10-10-10-| 7x
|--9-9-9-9----10-10-10-|
|--9-9-9-9----8--8--8--|
|--7-7-7-7-------------|

|-------------------------------------------|
|-------------------------------------------|
|-------------------------------------------|
|--9-9-9-9-9-9-9-9---------------------9\---|
|--9-9-9-9-9-9-9-9--8bu a long time----9\---|
|--7-7-7-7-7-7-7-7---------------------7\---|
Tap to rate this tab
# A B C D E F G H I J K L M N O P Q R S T U V W X Y Z