Song name
# A B C D E F G H I J K L M N O P Q R S T U V W X Y Z

Go Back To The Zoo - Beam Me Up tab

Intro + Riff
e |---4----5----5----4---|
B |---5----5----7----4---|
G |---6----6----6----4---|
D |---6----7----7----4---|
A |----------------------|
E |----------------------|  (4x) (4x)

Chorus1
e |---5----9----5----9----|
B |---5----9----5----9----|
G |---6----9----6----9----|
D |---7----11---7----11---|
A |---7----11---7----11---|
E |---5----9----5----9----|

e |---5----9----5----|
B |---5----9----5----|
G |---6----9----6----|
D |---7----11---7----|
A |---7----11---7----|
E |---5----9----5----|

e |---4----4----4----4----4----4----4----4----|
B |---5----4----5----4----5----4----5----4----|
G |---6----4----6----4----6----4----6----4----|
D |---6----4----6----4----6----4----6----4----|
A |---4---------------------------------------|
E |---4---------------------------------------|

Riff (4x)

Chorus2
e |---5----9----5----9----|
B |---5----9----5----9----|
G |---6----9----6----9----|
D |---7----11---7----11---|
A |---7----11---7----11---|
E |---5----9----5----9----|

e |---5----9----5----9----|
B |---5----9----5----9----|
G |---6----9----6----9----|
D |---7----11---7----11---|
A |---7----11---7----11---|
E |---5----9----5----9----|

Bridge
e |---9----7----2----5----7----|
B |---9----7----2----5----7----|
G |---9----8----3----6----8----|
D |---11---9----4----7----9----|
A |---11---9----4----7----9----|
E |---9----7----2----5----7----|

Chorus3
e |---9----11---9----|
B |---9----12---10---|
G |---9----11---11---|
D |---11---13---11---|
A |---11---11---9----|
E |---9----11---9----|

e |---4----4----4----4----|
B |---5----4----5----4----|
G |---6----4----6----4----|
D |---6----4----6----4----|
A |---4-------------------|
E |---4-------------------|

Riff (4x)

Riff (3x)

Eindig met:
e |---4----|
B |---5----|
G |---6----|
D |---6----|
A |--------|
E |--------|

Luister naar het nummer voor het ritme.
Tap to rate this tab
# A B C D E F G H I J K L M N O P Q R S T U V W X Y Z