Song name
# A B C D E F G H I J K L M N O P Q R S T U V W X Y Z

Go Back To The Zoo - Cant Stop My Feet tab

Intro
1st guitar
e |---7----5----0---|
B |---7----5----0---|
G |---8----6----1---|
D |---9----7----2---|
A |---9----7----2---|
E |---7----5----0---|   (2x)

RIff
1st guitar
e |---7----5----0---|
B |---7----5----0---|
G |---8----6----1---|
D |---9----7----2---|
A |---9----7----2---|
E |---7----5----0---|   (4x)

2nd guitar
e |---12---12---12---12---12----12---12---12---|
B |---14---14---14---12---12----12---14---12---|
G |---14---14---14---13---13----13---13---13---|
D |---14---14---14---12---12----12---12---12---|
A |--------------------------------------------|
E |--------------------------------------------|   (4x)

Verse 1
e |---7----7----5---|
B |---7----9----7---|
G |---8----9----7---|
D |---9----9----7---|
A |---9----7----5---|
E |---7----7----5---|

e |---2----7----5---|
B |---4----9----7---|
G |---4----9----7---|
D |---4----9----7---|
A |---2----7----5---|
E |---2----7----5---|

e |---7----7----7----7----7----7-------9---|
B |---9----7----9----7----9----7-------11--|
G |---9----8----9----8----9----8-------11--|
D |---9----9----9----9----9----9-------11--|
A |---7----9----7----9----7----9-------9---|
E |---7----7----7----7----7----7-------9---|

Riff
1st guitar
e |---7----5----0---|
B |---7----5----0---|
G |---8----6----1---|
D |---9----7----2---|
A |---9----7----2---|
E |---7----5----0---|   (4x)

2nd guitar
e |---12---12---12---12---12----12---12---12---|
B |---14---14---14---12---12----12---14---12---|
G |---14---14---14---13---13----13---13---13---|
D |---14---14---14---12---12----12---12---12---|
A |--------------------------------------------|
E |--------------------------------------------|   (4x)

Verse 2
e |---7----7----5---|
B |---7----9----7---|
G |---8----9----7---|
D |---9----9----7---|
A |---9----7----5---|
E |---7----7----5---|

e |---2----7----5---|
B |---4----9----7---|
G |---4----9----7---|
D |---4----9----7---|
A |---2----7----5---|
E |---2----7----5---|

e |---7----7----7----7----7----7-------9---|
B |---9----7----9----7----9----7-------11--|
G |---9----8----9----8----9----8-------11--|
D |---9----9----9----9----9----9-------11--|
A |---7----9----7----9----7----9-------9---|
E |---7----7----7----7----7----7-------9---|

Riff
1st guitar
e |---7----5----0---|
B |---7----5----0---|
G |---8----6----1---|
D |---9----7----2---|
A |---9----7----2---|
E |---7----5----0---|   (4x)

2nd guitar
e |---12---12---12---12---12----12---12---12---|
B |---14---14---14---12---12----12---14---12---|
G |---14---14---14---13---13----13---13---13---|
D |---14---14---14---12---12----12---12---12---|
A |--------------------------------------------|
E |--------------------------------------------|   (4x)

Bridge
e |---7----9----0----7---|
B |---7----9----0----7---|
G |---8----9----1----8---|
D |---9----11---2----9---|
A |---9----11---2----9---|
E |---7----9----0----7---|   (2x)

Riff
1st guitar
e |---7----5----0---|
B |---7----5----0---|
G |---8----6----1---|
D |---9----7----2---|
A |---9----7----2---|
E |---7----5----0---|   (16x)

2nd guitar
e |---12---12---12---12---12----12---12---12---|
B |---14---14---14---12---12----12---14---12---|
G |---14---14---14---13---13----13---13---13---|
D |---14---14---14---12---12----12---12---12---|
A |--------------------------------------------|
E |--------------------------------------------|   (16x)

Luister naar het nummer voor het ritme.
Tap to rate this tab
# A B C D E F G H I J K L M N O P Q R S T U V W X Y Z