Song name
# A B C D E F G H I J K L M N O P Q R S T U V W X Y Z

Go-betweens - Was There Anything I Could Do tab

Throughout the song, Em C D !


Main riff
----------------------------------------------------------|
----------------------------------------------------------|
----------------------------------------------------------|
----9---9-9-----------------------------------------------|
--7---7-----7------7--10--7-------9--12--9----------------|
-----------------8------------10--------------------------|


Little solo (1:33)

----------------------------------------------------------|
----------------------------------------------------------|
----------------------------------------------------------|
----9-9--7--5----5--9--7--5-------------------------------|
--7-------------------------------------------------------|
----------------------------------------------------------|
Tap to rate this tab
 
# A B C D E F G H I J K L M N O P Q R S T U V W X Y Z